ISO-10303-21;
HEADER;
/* Generated by software containing ST-Developer
 * from STEP Tools, Inc. (www.steptools.com) 
 */
/* OPTION: using custom schema-name function */

FILE_DESCRIPTION(
/* description */ (''),
/* implementation_level */ '2;1');

FILE_NAME(
/* name */ 'RhinoCircleTest',
/* time_stamp */ '2023-02-10T16:29:38-08:00',
/* author */ (''),
/* organization */ (''),
/* preprocessor_version */ 'ST-DEVELOPER v19.2',
/* originating_system */ 'Rhino 8.0',
/* authorisation */ '');

FILE_SCHEMA (('AUTOMOTIVE_DESIGN'));
ENDSEC;

DATA;
#10=SHAPE_REPRESENTATION_RELATIONSHIP('','',#223,#13);
#11=PRESENTATION_LAYER_ASSIGNMENT('Predefinito','',(#12));
#12=MANIFOLD_SOLID_BREP('brep_1',#14);
#13=ADVANCED_BREP_SHAPE_REPRESENTATION('brep_rep_0',(#12,#246),#222);
#14=CLOSED_SHELL('',(#25,#26,#27,#28,#29,#30,#31,#32,#33,#34,#35));
#15=FACE_BOUND('',#57,.T.);
#16=FACE_BOUND('',#58,.T.);
#17=FACE_BOUND('',#59,.T.);
#18=FACE_BOUND('',#60,.T.);
#19=FACE_BOUND('',#61,.T.);
#20=FACE_BOUND('',#63,.T.);
#21=FACE_BOUND('',#64,.T.);
#22=FACE_BOUND('',#65,.T.);
#23=FACE_BOUND('',#66,.T.);
#24=FACE_BOUND('',#67,.T.);
#25=ADVANCED_FACE('',(#36),#199,.T.);
#26=ADVANCED_FACE('',(#37),#200,.T.);
#27=ADVANCED_FACE('',(#38),#201,.T.);
#28=ADVANCED_FACE('',(#39),#202,.T.);
#29=ADVANCED_FACE('',(#40),#194,.F.);
#30=ADVANCED_FACE('',(#41),#195,.F.);
#31=ADVANCED_FACE('',(#42),#196,.F.);
#32=ADVANCED_FACE('',(#43),#197,.F.);
#33=ADVANCED_FACE('',(#44),#198,.F.);
#34=ADVANCED_FACE('',(#45,#15,#16,#17,#18,#19),#203,.T.);
#35=ADVANCED_FACE('',(#46,#20,#21,#22,#23,#24),#204,.T.);
#36=FACE_OUTER_BOUND('',#47,.T.);
#37=FACE_OUTER_BOUND('',#48,.T.);
#38=FACE_OUTER_BOUND('',#49,.T.);
#39=FACE_OUTER_BOUND('',#50,.T.);
#40=FACE_OUTER_BOUND('',#51,.T.);
#41=FACE_OUTER_BOUND('',#52,.T.);
#42=FACE_OUTER_BOUND('',#53,.T.);
#43=FACE_OUTER_BOUND('',#54,.T.);
#44=FACE_OUTER_BOUND('',#55,.T.);
#45=FACE_OUTER_BOUND('',#56,.T.);
#46=FACE_OUTER_BOUND('',#62,.T.);
#47=EDGE_LOOP('',(#68,#69,#70,#71));
#48=EDGE_LOOP('',(#72,#73,#74,#75));
#49=EDGE_LOOP('',(#76,#77,#78,#79));
#50=EDGE_LOOP('',(#80,#81,#82,#83));
#51=EDGE_LOOP('',(#84,#85,#86,#87));
#52=EDGE_LOOP('',(#88,#89,#90,#91));
#53=EDGE_LOOP('',(#92,#93,#94,#95));
#54=EDGE_LOOP('',(#96,#97,#98,#99));
#55=EDGE_LOOP('',(#100,#101,#102,#103));
#56=EDGE_LOOP('',(#104,#105,#106,#107));
#57=EDGE_LOOP('',(#108));
#58=EDGE_LOOP('',(#109));
#59=EDGE_LOOP('',(#110));
#60=EDGE_LOOP('',(#111));
#61=EDGE_LOOP('',(#112));
#62=EDGE_LOOP('',(#113,#114,#115,#116));
#63=EDGE_LOOP('',(#117));
#64=EDGE_LOOP('',(#118));
#65=EDGE_LOOP('',(#119));
#66=EDGE_LOOP('',(#120));
#67=EDGE_LOOP('',(#121));
#68=ORIENTED_EDGE('',*,*,#122,.T.);
#69=ORIENTED_EDGE('',*,*,#123,.T.);
#70=ORIENTED_EDGE('',*,*,#124,.F.);
#71=ORIENTED_EDGE('',*,*,#125,.F.);
#72=ORIENTED_EDGE('',*,*,#126,.T.);
#73=ORIENTED_EDGE('',*,*,#127,.T.);
#74=ORIENTED_EDGE('',*,*,#128,.F.);
#75=ORIENTED_EDGE('',*,*,#123,.F.);
#76=ORIENTED_EDGE('',*,*,#129,.T.);
#77=ORIENTED_EDGE('',*,*,#130,.T.);
#78=ORIENTED_EDGE('',*,*,#131,.F.);
#79=ORIENTED_EDGE('',*,*,#127,.F.);
#80=ORIENTED_EDGE('',*,*,#132,.T.);
#81=ORIENTED_EDGE('',*,*,#125,.T.);
#82=ORIENTED_EDGE('',*,*,#133,.F.);
#83=ORIENTED_EDGE('',*,*,#130,.F.);
#84=ORIENTED_EDGE('',*,*,#134,.T.);
#85=ORIENTED_EDGE('',*,*,#135,.T.);
#86=ORIENTED_EDGE('',*,*,#136,.F.);
#87=ORIENTED_EDGE('',*,*,#135,.F.);
#88=ORIENTED_EDGE('',*,*,#137,.T.);
#89=ORIENTED_EDGE('',*,*,#138,.T.);
#90=ORIENTED_EDGE('',*,*,#139,.F.);
#91=ORIENTED_EDGE('',*,*,#138,.F.);
#92=ORIENTED_EDGE('',*,*,#140,.T.);
#93=ORIENTED_EDGE('',*,*,#141,.T.);
#94=ORIENTED_EDGE('',*,*,#142,.F.);
#95=ORIENTED_EDGE('',*,*,#141,.F.);
#96=ORIENTED_EDGE('',*,*,#143,.T.);
#97=ORIENTED_EDGE('',*,*,#144,.T.);
#98=ORIENTED_EDGE('',*,*,#145,.F.);
#99=ORIENTED_EDGE('',*,*,#144,.F.);
#100=ORIENTED_EDGE('',*,*,#146,.T.);
#101=ORIENTED_EDGE('',*,*,#147,.T.);
#102=ORIENTED_EDGE('',*,*,#148,.F.);
#103=ORIENTED_EDGE('',*,*,#147,.F.);
#104=ORIENTED_EDGE('',*,*,#132,.F.);
#105=ORIENTED_EDGE('',*,*,#129,.F.);
#106=ORIENTED_EDGE('',*,*,#126,.F.);
#107=ORIENTED_EDGE('',*,*,#122,.F.);
#108=ORIENTED_EDGE('',*,*,#134,.F.);
#109=ORIENTED_EDGE('',*,*,#137,.F.);
#110=ORIENTED_EDGE('',*,*,#140,.F.);
#111=ORIENTED_EDGE('',*,*,#143,.F.);
#112=ORIENTED_EDGE('',*,*,#146,.F.);
#113=ORIENTED_EDGE('',*,*,#124,.T.);
#114=ORIENTED_EDGE('',*,*,#128,.T.);
#115=ORIENTED_EDGE('',*,*,#131,.T.);
#116=ORIENTED_EDGE('',*,*,#133,.T.);
#117=ORIENTED_EDGE('',*,*,#136,.T.);
#118=ORIENTED_EDGE('',*,*,#139,.T.);
#119=ORIENTED_EDGE('',*,*,#142,.T.);
#120=ORIENTED_EDGE('',*,*,#145,.T.);
#121=ORIENTED_EDGE('',*,*,#148,.T.);
#122=EDGE_CURVE('',#176,#177,#164,.T.);
#123=EDGE_CURVE('',#177,#178,#165,.T.);
#124=EDGE_CURVE('',#179,#178,#166,.T.);
#125=EDGE_CURVE('',#176,#179,#167,.T.);
#126=EDGE_CURVE('',#177,#180,#168,.T.);
#127=EDGE_CURVE('',#180,#181,#169,.T.);
#128=EDGE_CURVE('',#178,#181,#170,.T.);
#129=EDGE_CURVE('',#180,#182,#171,.T.);
#130=EDGE_CURVE('',#182,#183,#172,.T.);
#131=EDGE_CURVE('',#181,#183,#173,.T.);
#132=EDGE_CURVE('',#182,#176,#174,.T.);
#133=EDGE_CURVE('',#183,#179,#175,.T.);
#134=EDGE_CURVE('',#184,#184,#154,.T.);
#135=EDGE_CURVE('',#184,#185,#149,.T.);
#136=EDGE_CURVE('',#185,#185,#155,.T.);
#137=EDGE_CURVE('',#186,#186,#156,.T.);
#138=EDGE_CURVE('',#186,#187,#150,.T.);
#139=EDGE_CURVE('',#187,#187,#157,.T.);
#140=EDGE_CURVE('',#188,#188,#158,.T.);
#141=EDGE_CURVE('',#188,#189,#151,.T.);
#142=EDGE_CURVE('',#189,#189,#159,.T.);
#143=EDGE_CURVE('',#190,#190,#160,.T.);
#144=EDGE_CURVE('',#190,#191,#152,.T.);
#145=EDGE_CURVE('',#191,#191,#161,.T.);
#146=EDGE_CURVE('',#192,#192,#162,.T.);
#147=EDGE_CURVE('',#192,#193,#153,.T.);
#148=EDGE_CURVE('',#193,#193,#163,.T.);
#149=(
BOUNDED_CURVE()
B_SPLINE_CURVE(1,(#337,#338),.UNSPECIFIED.,.F.,.F.)
B_SPLINE_CURVE_WITH_KNOTS((2,2),(0.,40.),.UNSPECIFIED.)
CURVE()
GEOMETRIC_REPRESENTATION_ITEM()
RATIONAL_B_SPLINE_CURVE((1.,1.))
REPRESENTATION_ITEM('')
);
#150=(
BOUNDED_CURVE()
B_SPLINE_CURVE(1,(#341,#342),.UNSPECIFIED.,.F.,.F.)
B_SPLINE_CURVE_WITH_KNOTS((2,2),(0.,40.),.UNSPECIFIED.)
CURVE()
GEOMETRIC_REPRESENTATION_ITEM()
RATIONAL_B_SPLINE_CURVE((1.,1.))
REPRESENTATION_ITEM('')
);
#151=(
BOUNDED_CURVE()
B_SPLINE_CURVE(1,(#345,#346),.UNSPECIFIED.,.F.,.F.)
B_SPLINE_CURVE_WITH_KNOTS((2,2),(0.,40.),.UNSPECIFIED.)
CURVE()
GEOMETRIC_REPRESENTATION_ITEM()
RATIONAL_B_SPLINE_CURVE((1.,1.))
REPRESENTATION_ITEM('')
);
#152=(
BOUNDED_CURVE()
B_SPLINE_CURVE(1,(#349,#350),.UNSPECIFIED.,.F.,.F.)
B_SPLINE_CURVE_WITH_KNOTS((2,2),(0.,40.),.UNSPECIFIED.)
CURVE()
GEOMETRIC_REPRESENTATION_ITEM()
RATIONAL_B_SPLINE_CURVE((1.,1.))
REPRESENTATION_ITEM('')
);
#153=(
BOUNDED_CURVE()
B_SPLINE_CURVE(1,(#353,#354),.UNSPECIFIED.,.F.,.F.)
B_SPLINE_CURVE_WITH_KNOTS((2,2),(0.,40.),.UNSPECIFIED.)
CURVE()
GEOMETRIC_REPRESENTATION_ITEM()
RATIONAL_B_SPLINE_CURVE((1.,1.))
REPRESENTATION_ITEM('')
);
#154=CIRCLE('',#236,2.5);
#155=CIRCLE('',#237,2.5);
#156=CIRCLE('',#238,2.5);
#157=CIRCLE('',#239,2.5);
#158=CIRCLE('',#240,2.50000000000006);
#159=CIRCLE('',#241,2.50000000000006);
#160=CIRCLE('',#242,2.50000000000003);
#161=CIRCLE('',#243,2.50000000000003);
#162=CIRCLE('',#244,2.50000000000001);
#163=CIRCLE('',#245,2.50000000000001);
#164=B_SPLINE_CURVE_WITH_KNOTS('',1,(#312,#313),.UNSPECIFIED.,.F.,.F.,(2,
2),(0.,1000.),.UNSPECIFIED.);
#165=B_SPLINE_CURVE_WITH_KNOTS('',1,(#314,#315),.UNSPECIFIED.,.F.,.F.,(2,
2),(0.,40.),.UNSPECIFIED.);
#166=B_SPLINE_CURVE_WITH_KNOTS('',1,(#316,#317),.UNSPECIFIED.,.F.,.F.,(2,
2),(0.,1000.),.UNSPECIFIED.);
#167=B_SPLINE_CURVE_WITH_KNOTS('',1,(#318,#319),.UNSPECIFIED.,.F.,.F.,(2,
2),(0.,40.),.UNSPECIFIED.);
#168=B_SPLINE_CURVE_WITH_KNOTS('',1,(#320,#321),.UNSPECIFIED.,.F.,.F.,(2,
2),(1000.,1200.),.UNSPECIFIED.);
#169=B_SPLINE_CURVE_WITH_KNOTS('',1,(#322,#323),.UNSPECIFIED.,.F.,.F.,(2,
2),(0.,40.),.UNSPECIFIED.);
#170=B_SPLINE_CURVE_WITH_KNOTS('',1,(#324,#325),.UNSPECIFIED.,.F.,.F.,(2,
2),(1000.,1200.),.UNSPECIFIED.);
#171=B_SPLINE_CURVE_WITH_KNOTS('',1,(#326,#327),.UNSPECIFIED.,.F.,.F.,(2,
2),(1200.,2200.),.UNSPECIFIED.);
#172=B_SPLINE_CURVE_WITH_KNOTS('',1,(#328,#329),.UNSPECIFIED.,.F.,.F.,(2,
2),(0.,40.),.UNSPECIFIED.);
#173=B_SPLINE_CURVE_WITH_KNOTS('',1,(#330,#331),.UNSPECIFIED.,.F.,.F.,(2,
2),(1200.,2200.),.UNSPECIFIED.);
#174=B_SPLINE_CURVE_WITH_KNOTS('',1,(#332,#333),.UNSPECIFIED.,.F.,.F.,(2,
2),(2200.,2400.),.UNSPECIFIED.);
#175=B_SPLINE_CURVE_WITH_KNOTS('',1,(#334,#335),.UNSPECIFIED.,.F.,.F.,(2,
2),(2200.,2400.),.UNSPECIFIED.);
#176=VERTEX_POINT('',#294);
#177=VERTEX_POINT('',#295);
#178=VERTEX_POINT('',#296);
#179=VERTEX_POINT('',#297);
#180=VERTEX_POINT('',#298);
#181=VERTEX_POINT('',#299);
#182=VERTEX_POINT('',#300);
#183=VERTEX_POINT('',#301);
#184=VERTEX_POINT('',#302);
#185=VERTEX_POINT('',#303);
#186=VERTEX_POINT('',#304);
#187=VERTEX_POINT('',#305);
#188=VERTEX_POINT('',#306);
#189=VERTEX_POINT('',#307);
#190=VERTEX_POINT('',#308);
#191=VERTEX_POINT('',#309);
#192=VERTEX_POINT('',#310);
#193=VERTEX_POINT('',#311);
#194=CYLINDRICAL_SURFACE('',#229,2.5);
#195=CYLINDRICAL_SURFACE('',#230,2.5);
#196=CYLINDRICAL_SURFACE('',#231,2.50000000000006);
#197=CYLINDRICAL_SURFACE('',#232,2.50000000000003);
#198=CYLINDRICAL_SURFACE('',#233,2.50000000000001);
#199=PLANE('',#225);
#200=PLANE('',#226);
#201=PLANE('',#227);
#202=PLANE('',#228);
#203=PLANE('',#234);
#204=PLANE('',#235);
#205=SHAPE_DEFINITION_REPRESENTATION(#206,#223);
#206=PRODUCT_DEFINITION_SHAPE($,$,#208);
#207=PRODUCT_DEFINITION_CONTEXT('3D Mechanical Parts',#212,'design');
#208=PRODUCT_DEFINITION('A','First version',#209,#207);
#209=PRODUCT_DEFINITION_FORMATION_WITH_SPECIFIED_SOURCE('A',
'First version',#214,.MADE.);
#210=PRODUCT_RELATED_PRODUCT_CATEGORY('tool','tool',(#214));
#211=APPLICATION_PROTOCOL_DEFINITION('Draft International Standard',
'automotive_design',1999,#212);
#212=APPLICATION_CONTEXT(
'data for automotive mechanical design processes');
#213=PRODUCT_CONTEXT('3D Mechanical Parts',#212,'mechanical');
#214=PRODUCT('Document','Document','',(#213));
#215=(
LENGTH_UNIT()
NAMED_UNIT(*)
SI_UNIT(.MILLI.,.METRE.)
);
#216=(
NAMED_UNIT(*)
PLANE_ANGLE_UNIT()
SI_UNIT($,.RADIAN.)
);
#217=DIMENSIONAL_EXPONENTS(0.,0.,0.,0.,0.,0.,0.);
#218=PLANE_ANGLE_MEASURE_WITH_UNIT(PLANE_ANGLE_MEASURE(0.01745329252),#216);
#219=(
CONVERSION_BASED_UNIT('DEGREES',#218)
NAMED_UNIT(#217)
PLANE_ANGLE_UNIT()
);
#220=(
NAMED_UNIT(*)
SI_UNIT($,.STERADIAN.)
SOLID_ANGLE_UNIT()
);
#221=UNCERTAINTY_MEASURE_WITH_UNIT(LENGTH_MEASURE(0.001),#215,
'DISTANCE_ACCURACY_VALUE',
'Maximum model space distance between geometric entities at asserted c
onnectivities');
#222=(
GEOMETRIC_REPRESENTATION_CONTEXT(3)
GLOBAL_UNCERTAINTY_ASSIGNED_CONTEXT((#221))
GLOBAL_UNIT_ASSIGNED_CONTEXT((#220,#219,#215))
REPRESENTATION_CONTEXT('ID1','3D')
);
#223=SHAPE_REPRESENTATION('Document',(#224,#246),#222);
#224=AXIS2_PLACEMENT_3D($,#282,#247,#248);
#225=AXIS2_PLACEMENT_3D('',#283,#249,$);
#226=AXIS2_PLACEMENT_3D('',#284,#250,$);
#227=AXIS2_PLACEMENT_3D('',#285,#251,$);
#228=AXIS2_PLACEMENT_3D('',#286,#252,$);
#229=AXIS2_PLACEMENT_3D('',#287,#253,$);
#230=AXIS2_PLACEMENT_3D('',#288,#254,$);
#231=AXIS2_PLACEMENT_3D('',#289,#255,$);
#232=AXIS2_PLACEMENT_3D('',#290,#256,$);
#233=AXIS2_PLACEMENT_3D('',#291,#257,$);
#234=AXIS2_PLACEMENT_3D('',#292,#258,$);
#235=AXIS2_PLACEMENT_3D('',#293,#259,$);
#236=AXIS2_PLACEMENT_3D($,#336,#260,#261);
#237=AXIS2_PLACEMENT_3D($,#339,#262,#263);
#238=AXIS2_PLACEMENT_3D($,#340,#264,#265);
#239=AXIS2_PLACEMENT_3D($,#343,#266,#267);
#240=AXIS2_PLACEMENT_3D($,#344,#268,#269);
#241=AXIS2_PLACEMENT_3D($,#347,#270,#271);
#242=AXIS2_PLACEMENT_3D($,#348,#272,#273);
#243=AXIS2_PLACEMENT_3D($,#351,#274,#275);
#244=AXIS2_PLACEMENT_3D($,#352,#276,#277);
#245=AXIS2_PLACEMENT_3D($,#355,#278,#279);
#246=AXIS2_PLACEMENT_3D($,#356,#280,#281);
#247=DIRECTION('',(0.,0.,1.));
#248=DIRECTION('',(1.,0.,0.));
#249=DIRECTION('',(0.,-1.,0.));
#250=DIRECTION('',(1.,0.,0.));
#251=DIRECTION('',(0.,1.,0.));
#252=DIRECTION('',(-1.,0.,0.));
#253=DIRECTION('',(0.,0.,-1.));
#254=DIRECTION('',(0.,0.,-1.));
#255=DIRECTION('',(0.,0.,-1.));
#256=DIRECTION('',(0.,0.,-1.));
#257=DIRECTION('',(0.,0.,-1.));
#258=DIRECTION('',(0.,0.,-1.));
#259=DIRECTION('',(0.,0.,1.));
#260=DIRECTION('',(0.,0.,-1.));
#261=DIRECTION('',(1.,0.,0.));
#262=DIRECTION('',(0.,0.,-1.));
#263=DIRECTION('',(1.,0.,0.));
#264=DIRECTION('',(0.,0.,-1.));
#265=DIRECTION('',(1.,-1.70530256582424E-14,0.));
#266=DIRECTION('',(0.,0.,-1.));
#267=DIRECTION('',(1.,-1.70530256582424E-14,0.));
#268=DIRECTION('',(0.,0.,-1.));
#269=DIRECTION('',(1.,1.13686837721613E-14,0.));
#270=DIRECTION('',(0.,0.,-1.));
#271=DIRECTION('',(1.,1.13686837721613E-14,0.));
#272=DIRECTION('',(0.,0.,-1.));
#273=DIRECTION('',(1.,1.13686837721615E-14,0.));
#274=DIRECTION('',(0.,0.,-1.));
#275=DIRECTION('',(1.,1.13686837721615E-14,0.));
#276=DIRECTION('',(0.,0.,-1.));
#277=DIRECTION('',(1.,0.,0.));
#278=DIRECTION('',(0.,0.,-1.));
#279=DIRECTION('',(1.,0.,0.));
#280=DIRECTION('',(0.,0.,1.));
#281=DIRECTION('',(1.,0.,0.));
#282=CARTESIAN_POINT('',(0.,0.,0.));
#283=CARTESIAN_POINT('',(0.,0.,0.));
#284=CARTESIAN_POINT('',(1000.,0.,0.));
#285=CARTESIAN_POINT('',(1000.,200.,0.));
#286=CARTESIAN_POINT('',(0.,200.,0.));
#287=CARTESIAN_POINT('',(712.814051247949,112.867732536526,20.));
#288=CARTESIAN_POINT('',(546.129556669543,124.496883321066,20.));
#289=CARTESIAN_POINT('',(379.445062091137,136.126034105606,20.));
#290=CARTESIAN_POINT('',(212.760567512731,147.755184890146,20.));
#291=CARTESIAN_POINT('',(46.0760729343244,159.384335674686,20.));
#292=CARTESIAN_POINT('',(0.,0.,0.));
#293=CARTESIAN_POINT('',(0.,0.,40.));
#294=CARTESIAN_POINT('',(0.,0.,0.));
#295=CARTESIAN_POINT('',(1000.,0.,0.));
#296=CARTESIAN_POINT('',(1000.,0.,40.));
#297=CARTESIAN_POINT('',(0.,0.,40.));
#298=CARTESIAN_POINT('',(1000.,200.,0.));
#299=CARTESIAN_POINT('',(1000.,200.,40.));
#300=CARTESIAN_POINT('',(0.,200.,0.));
#301=CARTESIAN_POINT('',(0.,200.,40.));
#302=CARTESIAN_POINT('',(715.314051247949,112.867732536526,0.));
#303=CARTESIAN_POINT('',(715.314051247949,112.867732536526,40.));
#304=CARTESIAN_POINT('',(548.629556669543,124.496883321066,0.));
#305=CARTESIAN_POINT('',(548.629556669543,124.496883321066,40.));
#306=CARTESIAN_POINT('',(381.945062091137,136.126034105606,0.));
#307=CARTESIAN_POINT('',(381.945062091137,136.126034105606,40.));
#308=CARTESIAN_POINT('',(215.260567512731,147.755184890146,0.));
#309=CARTESIAN_POINT('',(215.260567512731,147.755184890146,40.));
#310=CARTESIAN_POINT('',(48.5760729343244,159.384335674686,0.));
#311=CARTESIAN_POINT('',(48.5760729343244,159.384335674686,40.));
#312=CARTESIAN_POINT('',(0.,0.,0.));
#313=CARTESIAN_POINT('',(1000.,0.,0.));
#314=CARTESIAN_POINT('',(1000.,0.,0.));
#315=CARTESIAN_POINT('',(1000.,0.,40.));
#316=CARTESIAN_POINT('',(0.,0.,40.));
#317=CARTESIAN_POINT('',(1000.,0.,40.));
#318=CARTESIAN_POINT('',(0.,0.,0.));
#319=CARTESIAN_POINT('',(0.,0.,40.));
#320=CARTESIAN_POINT('',(1000.,0.,0.));
#321=CARTESIAN_POINT('',(1000.,200.,0.));
#322=CARTESIAN_POINT('',(1000.,200.,0.));
#323=CARTESIAN_POINT('',(1000.,200.,40.));
#324=CARTESIAN_POINT('',(1000.,0.,40.));
#325=CARTESIAN_POINT('',(1000.,200.,40.));
#326=CARTESIAN_POINT('',(1000.,200.,0.));
#327=CARTESIAN_POINT('',(0.,200.,0.));
#328=CARTESIAN_POINT('',(0.,200.,0.));
#329=CARTESIAN_POINT('',(0.,200.,40.));
#330=CARTESIAN_POINT('',(1000.,200.,40.));
#331=CARTESIAN_POINT('',(0.,200.,40.));
#332=CARTESIAN_POINT('',(0.,200.,0.));
#333=CARTESIAN_POINT('',(0.,0.,0.));
#334=CARTESIAN_POINT('',(0.,200.,40.));
#335=CARTESIAN_POINT('',(0.,0.,40.));
#336=CARTESIAN_POINT('',(712.814051247949,112.867732536526,0.));
#337=CARTESIAN_POINT('',(715.314051247949,112.867732536526,0.));
#338=CARTESIAN_POINT('',(715.314051247949,112.867732536526,40.));
#339=CARTESIAN_POINT('',(712.814051247949,112.867732536526,40.));
#340=CARTESIAN_POINT('',(546.129556669543,124.496883321066,0.));
#341=CARTESIAN_POINT('',(548.629556669543,124.496883321066,0.));
#342=CARTESIAN_POINT('',(548.629556669543,124.496883321066,40.));
#343=CARTESIAN_POINT('',(546.129556669543,124.496883321066,40.));
#344=CARTESIAN_POINT('',(379.445062091137,136.126034105606,0.));
#345=CARTESIAN_POINT('',(381.945062091137,136.126034105606,0.));
#346=CARTESIAN_POINT('',(381.945062091137,136.126034105606,40.));
#347=CARTESIAN_POINT('',(379.445062091137,136.126034105606,40.));
#348=CARTESIAN_POINT('',(212.760567512731,147.755184890146,0.));
#349=CARTESIAN_POINT('',(215.260567512731,147.755184890146,0.));
#350=CARTESIAN_POINT('',(215.260567512731,147.755184890146,40.));
#351=CARTESIAN_POINT('',(212.760567512731,147.755184890146,40.));
#352=CARTESIAN_POINT('',(46.0760729343244,159.384335674686,0.));
#353=CARTESIAN_POINT('',(48.5760729343244,159.384335674686,0.));
#354=CARTESIAN_POINT('',(48.5760729343244,159.384335674686,40.));
#355=CARTESIAN_POINT('',(46.0760729343244,159.384335674686,40.));
#356=CARTESIAN_POINT('',(0.,0.,0.));
ENDSEC;
END-ISO-10303-21;
