   0
SECTION
   2
HEADER
   0
ENDSEC
   0
SECTION
   2
TABLES
   0
TABLE
   2
LTYPE
  70
1
0
LTYPE
2
CONTINUOUS
70
64
3
Solid line
72
65
73
0
40
0.0
   0
ENDTAB
   0
TABLE
   2
LAYER
  70
3
   0
LAYER
   2
ATRIUM HOCH
  62
7
   6
CONTINUOUS
  70
0
   0
LAYER
   2
POINTNUMBERS
  62
7
   6
CONTINUOUS
  70
0
   0
LAYER
   2
Elemente
  62
7
   6
CONTINUOUS
  70
0
   0
ENDTAB
   0
TABLE
   2
APPID
  70
0
   0
ENDTAB
   0
TABLE
   2
APPID
  70
0
   0
ENDTAB
   0
ENDSEC
   0
SECTION
   2
BLOCKS
   0
BLOCK
   8
0
   2
POINT
  70
66
  10
0.0
  20
0.0
  30
0.0
   0
POINT
   8
ATRIUM HOCH
  62
256
  10
0.0
  20
0.0
  30
0.0
   0
ARC
   8
ATRIUM HOCH
  62
256
   6
CONTINUOUS
  40
0.05
  50
90.0
  51
89.9427042230577
  10
0.0
  20
0.0
  30
0.0
   0
ATTDEF
   8
POINTNUMBERS
  62
7
  10
0.0
  20
0.1
  30
0.0
  40
0.1
   1
1 - 1000000
   3
Point number
   2
POINT_NUMBER
  70
0
  72
1
  11
0.0
  21
0.1
  31
0.0
  71
0
   0
ENDBLK
   8
0
   0
ENDSEC
   0
SECTION
   2
ENTITIES
   0
INSERT
   8
ATRIUM HOCH
  62
256
   6
BYLAYER
  66
1
   2
POINT
  10
0.0
  20
0.0
  30
14.5499390596115
   0
ATTRIB
   8
POINTNUMBERS
  62
7
  10
0.0
  20
0.0999999999999893
  30
14.5499390596115
  40
0.1
   1
Ori Pkt NrSta
   2
POINT_NUMBER
  70
0
  72
1
  11
0.0
  21
0.0999999999999893
  31
14.5499390596115
  71
0
   0
SEQEND
   8
0
  62
1
   0
INSERT
   8
ATRIUM HOCH
  62
256
   6
BYLAYER
  66
1
   2
POINT
  10
0.0
  20
11.6751972437931
  30
14.5237784529463
   0
ATTRIB
   8
POINTNUMBERS
  62
7
  10
0.0
  20
11.7751972437931
  30
14.5237784529463
  40
0.1
   1
Ori Pkt NrSta2
   2
POINT_NUMBER
  70
0
  72
1
  11
0.0
  21
11.7751972437931
  31
14.5237784529463
  71
0
   0
SEQEND
   8
0
  62
1
   0
INSERT
   8
ATRIUM HOCH
  62
256
   6
BYLAYER
  66
1
   2
POINT
  10
2.48165477893835
  20
16.0410960483524
  30
9.83996457796283
   0
ATTRIB
   8
POINTNUMBERS
  62
7
  10
2.48165477893835
  20
16.1410960483524
  30
9.83996457796283
  40
0.1
   1
H1
   2
POINT_NUMBER
  70
0
  72
1
  11
2.48165477893835
  21
16.1410960483524
  31
9.83996457796283
  71
0
   0
SEQEND
   8
0
  62
1
   0
INSERT
   8
ATRIUM HOCH
  62
256
   6
BYLAYER
  66
1
   2
POINT
  10
4.48867481574251
  20
-0.542043500221617
  30
13.9952169892951
   0
ATTRIB
   8
POINTNUMBERS
  62
7
  10
4.48867481574251
  20
-0.442043500221617
  30
13.9952169892951
  40
0.1
   1
1
   2
POINT_NUMBER
  70
0
  72
1
  11
4.48867481574251
  21
-0.442043500221617
  31
13.9952169892951
  71
0
   0
SEQEND
   8
0
  62
1
   0
INSERT
   8
ATRIUM HOCH
  62
256
   6
BYLAYER
  66
1
   2
POINT
  10
7.61235815805707
  20
-0.557076639668072
  30
13.6981530705931
   0
ATTRIB
   8
POINTNUMBERS
  62
7
  10
7.61235815805707
  20
-0.457076639668072
  30
13.6981530705931
  40
0.1
   1
2
   2
POINT_NUMBER
  70
0
  72
1
  11
7.61235815805707
  21
-0.457076639668072
  31
13.6981530705931
  71
0
   0
SEQEND
   8
0
  62
1
   0
INSERT
   8
ATRIUM HOCH
  62
256
   6
BYLAYER
  66
1
   2
POINT
  10
7.60540776171168
  20
12.3149613771784
  30
13.6854929480075
   0
ATTRIB
   8
POINTNUMBERS
  62
7
  10
7.60540776171168
  20
12.4149613771784
  30
13.6854929480075
  40
0.1
   1
3
   2
POINT_NUMBER
  70
0
  72
1
  11
7.60540776171168
  21
12.4149613771784
  31
13.6854929480075
  71
0
   0
SEQEND
   8
0
  62
1
   0
INSERT
   8
ATRIUM HOCH
  62
256
   6
BYLAYER
  66
1
   2
POINT
  10
4.09802154510447
  20
12.3241186525032
  30
14.0274353246986
   0
ATTRIB
   8
POINTNUMBERS
  62
7
  10
4.09802154510447
  20
12.4241186525032
  30
14.0274353246986
  40
0.1
   1
4
   2
POINT_NUMBER
  70
0
  72
1
  11
4.09802154510447
  21
12.4241186525032
  31
14.0274353246986
  71
0
   0
SEQEND
   8
0
  62
1
   0
INSERT
   8
ATRIUM HOCH
  62
256
   6
BYLAYER
  66
1
   2
POINT
  10
1.18918709102189e-005
  20
-0.0411559913273889
  30
14.544084237996
   0
ATTRIB
   8
POINTNUMBERS
  62
7
  10
1.18918709102189e-005
  20
0.0588440086726111
  30
14.544084237996
  40
0.1
   1
B1
   2
POINT_NUMBER
  70
0
  72
1
  11
1.18918709102189e-005
  21
0.0588440086726111
  31
14.544084237996
  71
0
   0
SEQEND
   8
0
  62
1
   0
INSERT
   8
ATRIUM HOCH
  62
256
   6
BYLAYER
  66
1
   2
POINT
  10
-6.23146412781495e-005
  20
1.15226485499455
  30
14.4995138730837
   0
ATTRIB
   8
POINTNUMBERS
  62
7
  10
-6.23146412781495e-005
  20
1.25226485499455
  30
14.4995138730837
  40
0.1
   1
B2
   2
POINT_NUMBER
  70
0
  72
1
  11
-6.23146412781495e-005
  21
1.25226485499455
  31
14.4995138730837
  71
0
   0
SEQEND
   8
0
  62
1
   0
INSERT
   8
ATRIUM HOCH
  62
256
   6
BYLAYER
  66
1
   2
POINT
  10
0.00893320222133909
  20
2.5845584339665
  30
14.4723010077426
   0
ATTRIB
   8
POINTNUMBERS
  62
7
  10
0.00893320222133909
  20
2.6845584339665
  30
14.4723010077426
  40
0.1
   1
B3
   2
POINT_NUMBER
  70
0
  72
1
  11
0.00893320222133909
  21
2.6845584339665
  31
14.4723010077426
  71
0
   0
SEQEND
   8
0
  62
1
   0
INSERT
   8
ATRIUM HOCH
  62
256
   6
BYLAYER
  66
1
   2
POINT
  10
0.00905408717206058
  20
4.4357352687319
  30
14.4933412338284
   0
ATTRIB
   8
POINTNUMBERS
  62
7
  10
0.00905408717206058
  20
4.5357352687319
  30
14.4933412338284
  40
0.1
   1
B4
   2
POINT_NUMBER
  70
0
  72
1
  11
0.00905408717206058
  21
4.5357352687319
  31
14.4933412338284
  71
0
   0
SEQEND
   8
0
  62
1
   0
INSERT
   8
ATRIUM HOCH
  62
256
   6
BYLAYER
  66
1
   2
POINT
  10
0.00691873976315271
  20
5.97003334968923
  30
14.5296603191895
   0
ATTRIB
   8
POINTNUMBERS
  62
7
  10
0.00691873976315271
  20
6.07003334968923
  30
14.5296603191895
  40
0.1
   1
B5
   2
POINT_NUMBER
  70
0
  72
1
  11
0.00691873976315271
  21
6.07003334968923
  31
14.5296603191895
  71
0
   0
SEQEND
   8
0
  62
1
   0
INSERT
   8
ATRIUM HOCH
  62
256
   6
BYLAYER
  66
1
   2
POINT
  10
0.00809872155459246
  20
7.62094049684709
  30
14.5299444589517
   0
ATTRIB
   8
POINTNUMBERS
  62
7
  10
0.00809872155459246
  20
7.72094049684709
  30
14.5299444589517
  40
0.1
   1
B6
   2
POINT_NUMBER
  70
0
  72
1
  11
0.00809872155459246
  21
7.72094049684709
  31
14.5299444589517
  71
0
   0
SEQEND
   8
0
  62
1
   0
INSERT
   8
ATRIUM HOCH
  62
256
   6
BYLAYER
  66
1
   2
POINT
  10
0.00711100217421823
  20
9.21182786746685
  30
14.5586275469116
   0
ATTRIB
   8
POINTNUMBERS
  62
7
  10
0.00711100217421823
  20
9.31182786746685
  30
14.5586275469116
  40
0.1
   1
B7
   2
POINT_NUMBER
  70
0
  72
1
  11
0.00711100217421823
  21
9.31182786746685
  31
14.5586275469116
  71
0
   0
SEQEND
   8
0
  62
1
   0
INSERT
   8
ATRIUM HOCH
  62
256
   6
BYLAYER
  66
1
   2
POINT
  10
0.00501449121224695
  20
10.1738034824222
  30
14.6286854093544
   0
ATTRIB
   8
POINTNUMBERS
  62
7
  10
0.00501449121224695
  20
10.2738034824222
  30
14.6286854093544
  40
0.1
   1
B8
   2
POINT_NUMBER
  70
0
  72
1
  11
0.00501449121224695
  21
10.2738034824222
  31
14.6286854093544
  71
0
   0
SEQEND
   8
0
  62
1
   0
INSERT
   8
ATRIUM HOCH
  62
256
   6
BYLAYER
  66
1
   2
POINT
  10
-0.00223194252710179
  20
11.8482281585226
  30
14.5878152724953
   0
ATTRIB
   8
POINTNUMBERS
  62
7
  10
-0.00223194252710179
  20
11.9482281585226
  30
14.5878152724953
  40
0.1
   1
B9
   2
POINT_NUMBER
  70
0
  72
1
  11
-0.00223194252710179
  21
11.9482281585226
  31
14.5878152724953
  71
0
   0
SEQEND
   8
0
  62
1
   0
INSERT
   8
ATRIUM HOCH
  62
256
   6
BYLAYER
  66
1
   2
POINT
  10
0.649415938715366
  20
12.3485680508985
  30
14.4307528419033
   0
ATTRIB
   8
POINTNUMBERS
  62
7
  10
0.649415938715366
  20
12.4485680508985
  30
14.4307528419033
  40
0.1
   1
B10
   2
POINT_NUMBER
  70
0
  72
1
  11
0.649415938715366
  21
12.4485680508985
  31
14.4307528419033
  71
0
   0
SEQEND
   8
0
  62
1
   0
INSERT
   8
ATRIUM HOCH
  62
256
   6
BYLAYER
  66
1
   2
POINT
  10
2.83167333245199
  20
12.335227801299
  30
14.2430110413974
   0
ATTRIB
   8
POINTNUMBERS
  62
7
  10
2.83167333245199
  20
12.435227801299
  30
14.2430110413974
  40
0.1
   1
B11
   2
POINT_NUMBER
  70
0
  72
1
  11
2.83167333245199
  21
12.435227801299
  31
14.2430110413974
  71
0
   0
SEQEND
   8
0
  62
1
   0
INSERT
   8
ATRIUM HOCH
  62
256
   6
BYLAYER
  66
1
   2
POINT
  10
4.57071690063688
  20
12.3206197875036
  30
13.921428106938
   0
ATTRIB
   8
POINTNUMBERS
  62
7
  10
4.57071690063688
  20
12.4206197875036
  30
13.921428106938
  40
0.1
   1
B12
   2
POINT_NUMBER
  70
0
  72
1
  11
4.57071690063688
  21
12.4206197875036
  31
13.921428106938
  71
0
   0
SEQEND
   8
0
  62
1
   0
INSERT
   8
ATRIUM HOCH
  62
256
   6
BYLAYER
  66
1
   2
POINT
  10
5.87077162204596
  20
12.3171098294469
  30
13.8881032556781
   0
ATTRIB
   8
POINTNUMBERS
  62
7
  10
5.87077162204596
  20
12.4171098294469
  30
13.8881032556781
  40
0.1
   1
B13
   2
POINT_NUMBER
  70
0
  72
1
  11
5.87077162204596
  21
12.4171098294469
  31
13.8881032556781
  71
0
   0
SEQEND
   8
0
  62
1
   0
INSERT
   8
ATRIUM HOCH
  62
256
   6
BYLAYER
  66
1
   2
POINT
  10
7.2985443590469
  20
12.3156410428742
  30
13.7829024293303
   0
ATTRIB
   8
POINTNUMBERS
  62
7
  10
7.2985443590469
  20
12.4156410428742
  30
13.7829024293303
  40
0.1
   1
B14
   2
POINT_NUMBER
  70
0
  72
1
  11
7.2985443590469
  21
12.4156410428742
  31
13.7829024293303
  71
0
   0
SEQEND
   8
0
  62
1
   0
INSERT
   8
ATRIUM HOCH
  62
256
   6
BYLAYER
  66
1
   2
POINT
  10
8.94061287065183
  20
12.3118012234836
  30
13.4869160957151
   0
ATTRIB
   8
POINTNUMBERS
  62
7
  10
8.94061287065183
  20
12.4118012234836
  30
13.4869160957151
  40
0.1
   1
B15
   2
POINT_NUMBER
  70
0
  72
1
  11
8.94061287065183
  21
12.4118012234836
  31
13.4869160957151
  71
0
   0
SEQEND
   8
0
  62
1
   0
INSERT
   8
ATRIUM HOCH
  62
256
   6
BYLAYER
  66
1
   2
POINT
  10
0.603460665413879
  20
-0.528229555353314
  30
14.2403658184515
   0
ATTRIB
   8
POINTNUMBERS
  62
7
  10
0.603460665413879
  20
-0.428229555353314
  30
14.2403658184515
  40
0.1
   1
B16
   2
POINT_NUMBER
  70
0
  72
1
  11
0.603460665413879
  21
-0.428229555353314
  31
14.2403658184515
  71
0
   0
SEQEND
   8
0
  62
1
   0
INSERT
   8
ATRIUM HOCH
  62
256
   6
BYLAYER
  66
1
   2
POINT
  10
2.20094406772657
  20
-0.529403550588736
  30
14.2439613736919
   0
ATTRIB
   8
POINTNUMBERS
  62
7
  10
2.20094406772657
  20
-0.429403550588736
  30
14.2439613736919
  40
0.1
   1
B17
   2
POINT_NUMBER
  70
0
  72
1
  11
2.20094406772657
  21
-0.429403550588736
  31
14.2439613736919
  71
0
   0
SEQEND
   8
0
  62
1
   0
INSERT
   8
ATRIUM HOCH
  62
256
   6
BYLAYER
  66
1
   2
POINT
  10
3.62065160180191
  20
-0.53339094294181
  30
13.92057436008
   0
ATTRIB
   8
POINTNUMBERS
  62
7
  10
3.62065160180191
  20
-0.43339094294181
  30
13.92057436008
  40
0.1
   1
B18
   2
POINT_NUMBER
  70
0
  72
1
  11
3.62065160180191
  21
-0.43339094294181
  31
13.92057436008
  71
0
   0
SEQEND
   8
0
  62
1
   0
INSERT
   8
ATRIUM HOCH
  62
256
   6
BYLAYER
  66
1
   2
POINT
  10
5.4906729922702
  20
-0.545861580337309
  30
13.773914023375
   0
ATTRIB
   8
POINTNUMBERS
  62
7
  10
5.4906729922702
  20
-0.445861580337309
  30
13.773914023375
  40
0.1
   1
B19
   2
POINT_NUMBER
  70
0
  72
1
  11
5.4906729922702
  21
-0.445861580337309
  31
13.773914023375
  71
0
   0
SEQEND
   8
0
  62
1
   0
INSERT
   8
ATRIUM HOCH
  62
256
   6
BYLAYER
  66
1
   2
POINT
  10
7.62058186945099
  20
-0.557142333004831
  30
13.4347279433818
   0
ATTRIB
   8
POINTNUMBERS
  62
7
  10
7.62058186945099
  20
-0.457142333004831
  30
13.4347279433818
  40
0.1
   1
B20
   2
POINT_NUMBER
  70
0
  72
1
  11
7.62058186945099
  21
-0.457142333004831
  31
13.4347279433818
  71
0
   0
SEQEND
   8
0
  62
1
   0
INSERT
   8
ATRIUM HOCH
  62
256
   6
BYLAYER
  66
1
   2
POINT
  10
9.13058767997902
  20
-0.572541321413609
  30
13.4053172783702
   0
ATTRIB
   8
POINTNUMBERS
  62
7
  10
9.13058767997902
  20
-0.472541321413609
  30
13.4053172783702
  40
0.1
   1
B21
   2
POINT_NUMBER
  70
0
  72
1
  11
9.13058767997902
  21
-0.472541321413609
  31
13.4053172783702
  71
0
   0
SEQEND
   8
0
  62
1
   0
INSERT
   8
ATRIUM HOCH
  62
256
   6
BYLAYER
  66
1
   2
POINT
  10
7.68032190963359
  20
-0.560619857674939
  30
13.8009667267465
   0
ATTRIB
   8
POINTNUMBERS
  62
7
  10
7.68032190963359
  20
-0.460619857674939
  30
13.8009667267465
  40
0.1
   1
B50
   2
POINT_NUMBER
  70
0
  72
1
  11
7.68032190963359
  21
-0.460619857674939
  31
13.8009667267465
  71
0
   0
SEQEND
   8
0
  62
1
   0
INSERT
   8
ATRIUM HOCH
  62
256
   6
BYLAYER
  66
1
   2
POINT
  10
7.67816589365153
  20
-0.559006766540672
  30
13.7219124831257
   0
ATTRIB
   8
POINTNUMBERS
  62
7
  10
7.67816589365153
  20
-0.459006766540672
  30
13.7219124831257
  40
0.1
   1
B51
   2
POINT_NUMBER
  70
0
  72
1
  11
7.67816589365153
  21
-0.459006766540672
  31
13.7219124831257
  71
0
   0
SEQEND
   8
0
  62
1
   0
INSERT
   8
ATRIUM HOCH
  62
256
   6
BYLAYER
  66
1
   2
POINT
  10
7.53192053584038
  20
-0.556720422565963
  30
13.7210825328874
   0
ATTRIB
   8
POINTNUMBERS
  62
7
  10
7.53192053584038
  20
-0.456720422565963
  30
13.7210825328874
  40
0.1
   1
B52
   2
POINT_NUMBER
  70
0
  72
1
  11
7.53192053584038
  21
-0.456720422565963
  31
13.7210825328874
  71
0
   0
SEQEND
   8
0
  62
1
   0
INSERT
   8
ATRIUM HOCH
  62
256
   6
BYLAYER
  66
1
   2
POINT
  10
7.53152951107983
  20
-0.557336440751246
  30
13.8726830874294
   0
ATTRIB
   8
POINTNUMBERS
  62
7
  10
7.53152951107983
  20
-0.457336440751246
  30
13.8726830874294
  40
0.1
   1
B53
   2
POINT_NUMBER
  70
0
  72
1
  11
7.53152951107983
  21
-0.457336440751246
  31
13.8726830874294
  71
0
   0
SEQEND
   8
0
  62
1
   0
INSERT
   8
ATRIUM HOCH
  62
256
   6
BYLAYER
  66
1
   2
POINT
  10
5.10019041103637
  20
-0.545146961198304
  30
14.1270909316526
   0
ATTRIB
   8
POINTNUMBERS
  62
7
  10
5.10019041103637
  20
-0.445146961198304
  30
14.1270909316526
  40
0.1
   1
B54
   2
POINT_NUMBER
  70
0
  72
1
  11
5.10019041103637
  21
-0.445146961198304
  31
14.1270909316526
  71
0
   0
SEQEND
   8
0
  62
1
   0
INSERT
   8
ATRIUM HOCH
  62
256
   6
BYLAYER
  66
1
   2
POINT
  10
5.09619938602015
  20
-0.544685968047034
  30
14.0546228617665
   0
ATTRIB
   8
POINTNUMBERS
  62
7
  10
5.09619938602015
  20
-0.444685968047034
  30
14.0546228617665
  40
0.1
   1
B55
   2
POINT_NUMBER
  70
0
  72
1
  11
5.09619938602015
  21
-0.444685968047034
  31
14.0546228617665
  71
0
   0
SEQEND
   8
0
  62
1
   0
INSERT
   8
ATRIUM HOCH
  62
256
   6
BYLAYER
  66
1
   2
POINT
  10
4.95026855404313
  20
-0.544459304063934
  30
14.049456990101
   0
ATTRIB
   8
POINTNUMBERS
  62
7
  10
4.95026855404313
  20
-0.444459304063934
  30
14.049456990101
  40
0.1
   1
B56
   2
POINT_NUMBER
  70
0
  72
1
  11
4.95026855404313
  21
-0.444459304063934
  31
14.049456990101
  71
0
   0
SEQEND
   8
0
  62
1
   0
INSERT
   8
ATRIUM HOCH
  62
256
   6
BYLAYER
  66
1
   2
POINT
  10
4.95046935165681
  20
-0.547639860785196
  30
14.2488060119055
   0
ATTRIB
   8
POINTNUMBERS
  62
7
  10
4.95046935165681
  20
-0.447639860785196
  30
14.2488060119055
  40
0.1
   1
B57
   2
POINT_NUMBER
  70
0
  72
1
  11
4.95046935165681
  21
-0.447639860785196
  31
14.2488060119055
  71
0
   0
SEQEND
   8
0
  62
1
   0
INSERT
   8
ATRIUM HOCH
  62
256
   6
BYLAYER
  66
1
   2
POINT
  10
2.51063668108801
  20
-0.530669269651767
  30
14.4822387911832
   0
ATTRIB
   8
POINTNUMBERS
  62
7
  10
2.51063668108801
  20
-0.430669269651767
  30
14.4822387911832
  40
0.1
   1
B58
   2
POINT_NUMBER
  70
0
  72
1
  11
2.51063668108801
  21
-0.430669269651767
  31
14.4822387911832
  71
0
   0
SEQEND
   8
0
  62
1
   0
INSERT
   8
ATRIUM HOCH
  62
256
   6
BYLAYER
  66
1
   2
POINT
  10
2.51091560575197
  20
-0.530462822799224
  30
14.3969998136486
   0
ATTRIB
   8
POINTNUMBERS
  62
7
  10
2.51091560575197
  20
-0.430462822799224
  30
14.3969998136486
  40
0.1
   1
B59
   2
POINT_NUMBER
  70
0
  72
1
  11
2.51091560575197
  21
-0.430462822799224
  31
14.3969998136486
  71
0
   0
SEQEND
   8
0
  62
1
   0
INSERT
   8
ATRIUM HOCH
  62
256
   6
BYLAYER
  66
1
   2
POINT
  10
2.3601561037471
  20
-0.530064945006659
  30
14.4000366371673
   0
ATTRIB
   8
POINTNUMBERS
  62
7
  10
2.3601561037471
  20
-0.430064945006659
  30
14.4000366371673
  40
0.1
   1
B60
   2
POINT_NUMBER
  70
0
  72
1
  11
2.3601561037471
  21
-0.430064945006659
  31
14.4000366371673
  71
0
   0
SEQEND
   8
0
  62
1
   0
INSERT
   8
ATRIUM HOCH
  62
256
   6
BYLAYER
  66
1
   2
POINT
  10
2.35861819938554
  20
-0.531274196058299
  30
14.5679153176856
   0
ATTRIB
   8
POINTNUMBERS
  62
7
  10
2.35861819938554
  20
-0.431274196058299
  30
14.5679153176856
  40
0.1
   1
B61
   2
POINT_NUMBER
  70
0
  72
1
  11
2.35861819938554
  21
-0.431274196058299
  31
14.5679153176856
  71
0
   0
SEQEND
   8
0
  62
1
   0
INSERT
   8
ATRIUM HOCH
  62
256
   6
BYLAYER
  66
1
   2
POINT
  10
-0.00162775406781712
  20
-0.514839642064095
  30
14.7740918250564
   0
ATTRIB
   8
POINTNUMBERS
  62
7
  10
-0.00162775406781712
  20
-0.414839642064095
  30
14.7740918250564
  40
0.1
   1
B62
   2
POINT_NUMBER
  70
0
  72
1
  11
-0.00162775406781712
  21
-0.414839642064095
  31
14.7740918250564
  71
0
   0
SEQEND
   8
0
  62
1
   0
INSERT
   8
ATRIUM HOCH
  62
256
   6
BYLAYER
  66
1
   2
POINT
  10
-0.000236627082307095
  20
1.11187309100645
  30
14.770786340607
   0
ATTRIB
   8
POINTNUMBERS
  62
7
  10
-0.000236627082307095
  20
1.21187309100645
  30
14.770786340607
  40
0.1
   1
B63
   2
POINT_NUMBER
  70
0
  72
1
  11
-0.000236627082307095
  21
1.21187309100645
  31
14.770786340607
  71
0
   0
SEQEND
   8
0
  62
1
   0
INSERT
   8
ATRIUM HOCH
  62
256
   6
BYLAYER
  66
1
   2
POINT
  10
0.00966409223356202
  20
3.23740636738401
  30
14.7717719960186
   0
ATTRIB
   8
POINTNUMBERS
  62
7
  10
0.00966409223356202
  20
3.33740636738401
  30
14.7717719960186
  40
0.1
   1
B64
   2
POINT_NUMBER
  70
0
  72
1
  11
0.00966409223356202
  21
3.33740636738401
  31
14.7717719960186
  71
0
   0
SEQEND
   8
0
  62
1
   0
INSERT
   8
ATRIUM HOCH
  62
256
   6
BYLAYER
  66
1
   2
POINT
  10
0.00678895088988263
  20
5.76487533640324
  30
14.7727208079526
   0
ATTRIB
   8
POINTNUMBERS
  62
7
  10
0.00678895088988263
  20
5.86487533640323
  30
14.7727208079526
  40
0.1
   1
B65
   2
POINT_NUMBER
  70
0
  72
1
  11
0.00678895088988263
  21
5.86487533640323
  31
14.7727208079526
  71
0
   0
SEQEND
   8
0
  62
1
   0
INSERT
   8
ATRIUM HOCH
  62
256
   6
BYLAYER
  66
1
   2
POINT
  10
0.00560009611506196
  20
7.11245596811192
  30
14.7659541130866
   0
ATTRIB
   8
POINTNUMBERS
  62
7
  10
0.00560009611506196
  20
7.21245596811192
  30
14.7659541130866
  40
0.1
   1
B66
   2
POINT_NUMBER
  70
0
  72
1
  11
0.00560009611506196
  21
7.21245596811192
  31
14.7659541130866
  71
0
   0
SEQEND
   8
0
  62
1
   0
INSERT
   8
ATRIUM HOCH
  62
256
   6
BYLAYER
  66
1
   2
POINT
  10
0.00768314071649989
  20
10.0387531637794
  30
14.7750717064432
   0
ATTRIB
   8
POINTNUMBERS
  62
7
  10
0.00768314071649989
  20
10.1387531637794
  30
14.7750717064432
  40
0.1
   1
B67
   2
POINT_NUMBER
  70
0
  72
1
  11
0.00768314071649989
  21
10.1387531637794
  31
14.7750717064432
  71
0
   0
SEQEND
   8
0
  62
1
   0
INSERT
   8
ATRIUM HOCH
  62
256
   6
BYLAYER
  66
1
   2
POINT
  10
0.00397175259089977
  20
11.1062896097301
  30
14.7713602102887
   0
ATTRIB
   8
POINTNUMBERS
  62
7
  10
0.00397175259089977
  20
11.2062896097301
  30
14.7713602102887
  40
0.1
   1
B68
   2
POINT_NUMBER
  70
0
  72
1
  11
0.00397175259089977
  21
11.2062896097301
  31
14.7713602102887
  71
0
   0
SEQEND
   8
0
  62
1
   0
INSERT
   8
ATRIUM HOCH
  62
256
   6
BYLAYER
  66
1
   2
POINT
  10
-0.00257758907783057
  20
12.0465490772218
  30
14.7635601672848
   0
ATTRIB
   8
POINTNUMBERS
  62
7
  10
-0.00257758907783057
  20
12.1465490772218
  30
14.7635601672848
  40
0.1
   1
B69
   2
POINT_NUMBER
  70
0
  72
1
  11
-0.00257758907783057
  21
12.1465490772218
  31
14.7635601672848
  71
0
   0
SEQEND
   8
0
  62
1
   0
INSERT
   8
ATRIUM HOCH
  62
256
   6
BYLAYER
  66
1
   2
POINT
  10
2.37006898741303
  20
12.334017934124
  30
14.3930935414877
   0
ATTRIB
   8
POINTNUMBERS
  62
7
  10
2.37006898741303
  20
12.434017934124
  30
14.3930935414877
  40
0.1
   1
B70
   2
POINT_NUMBER
  70
0
  72
1
  11
2.37006898741303
  21
12.434017934124
  31
14.3930935414877
  71
0
   0
SEQEND
   8
0
  62
1
   0
INSERT
   8
ATRIUM HOCH
  62
256
   6
BYLAYER
  66
1
   2
POINT
  10
2.50431193805604
  20
12.3364718996239
  30
14.3952543955225
   0
ATTRIB
   8
POINTNUMBERS
  62
7
  10
2.50431193805604
  20
12.4364718996239
  30
14.3952543955225
  40
0.1
   1
B71
   2
POINT_NUMBER
  70
0
  72
1
  11
2.50431193805604
  21
12.4364718996239
  31
14.3952543955225
  71
0
   0
SEQEND
   8
0
  62
1
   0
INSERT
   8
ATRIUM HOCH
  62
256
   6
BYLAYER
  66
1
   2
POINT
  10
2.50495309579602
  20
12.3359312508881
  30
14.4550465933161
   0
ATTRIB
   8
POINTNUMBERS
  62
7
  10
2.50495309579602
  20
12.4359312508881
  30
14.4550465933161
  40
0.1
   1
B72
   2
POINT_NUMBER
  70
0
  72
1
  11
2.50495309579602
  21
12.4359312508881
  31
14.4550465933161
  71
0
   0
SEQEND
   8
0
  62
1
   0
INSERT
   8
ATRIUM HOCH
  62
256
   6
BYLAYER
  66
1
   2
POINT
  10
4.95225110957225
  20
12.3244613463991
  30
14.2597307119741
   0
ATTRIB
   8
POINTNUMBERS
  62
7
  10
4.95225110957225
  20
12.4244613463991
  30
14.2597307119741
  40
0.1
   1
B73
   2
POINT_NUMBER
  70
0
  72
1
  11
4.95225110957225
  21
12.4244613463991
  31
14.2597307119741
  71
0
   0
SEQEND
   8
0
  62
1
   0
INSERT
   8
ATRIUM HOCH
  62
256
   6
BYLAYER
  66
1
   2
POINT
  10
4.94660192440778
  20
12.3235010587114
  30
14.0576359519107
   0
ATTRIB
   8
POINTNUMBERS
  62
7
  10
4.94660192440778
  20
12.4235010587114
  30
14.0576359519107
  40
0.1
   1
B74
   2
POINT_NUMBER
  70
0
  72
1
  11
4.94660192440778
  21
12.4235010587114
  31
14.0576359519107
  71
0
   0
SEQEND
   8
0
  62
1
   0
INSERT
   8
ATRIUM HOCH
  62
256
   6
BYLAYER
  66
1
   2
POINT
  10
5.09095158628042
  20
12.3200567979907
  30
14.0471505847842
   0
ATTRIB
   8
POINTNUMBERS
  62
7
  10
5.09095158628042
  20
12.4200567979907
  30
14.0471505847842
  40
0.1
   1
B75
   2
POINT_NUMBER
  70
0
  72
1
  11
5.09095158628042
  21
12.4200567979907
  31
14.0471505847842
  71
0
   0
SEQEND
   8
0
  62
1
   0
INSERT
   8
ATRIUM HOCH
  62
256
   6
BYLAYER
  66
1
   2
POINT
  10
5.0917359189387
  20
12.3228586949805
  30
14.1233538844307
   0
ATTRIB
   8
POINTNUMBERS
  62
7
  10
5.0917359189387
  20
12.4228586949805
  30
14.1233538844307
  40
0.1
   1
B76
   2
POINT_NUMBER
  70
0
  72
1
  11
5.0917359189387
  21
12.4228586949805
  31
14.1233538844307
  71
0
   0
SEQEND
   8
0
  62
1
   0
INSERT
   8
ATRIUM HOCH
  62
256
   6
BYLAYER
  66
1
   2
POINT
  10
7.53096061315232
  20
12.31407889355
  30
13.9120401240065
   0
ATTRIB
   8
POINTNUMBERS
  62
7
  10
7.53096061315232
  20
12.41407889355
  30
13.9120401240065
  40
0.1
   1
B77
   2
POINT_NUMBER
  70
0
  72
1
  11
7.53096061315232
  21
12.41407889355
  31
13.9120401240065
  71
0
   0
SEQEND
   8
0
  62
1
   0
INSERT
   8
ATRIUM HOCH
  62
256
   6
BYLAYER
  66
1
   2
POINT
  10
7.53210042028341
  20
12.3142399840217
  30
13.7064248613521
   0
ATTRIB
   8
POINTNUMBERS
  62
7
  10
7.53210042028341
  20
12.4142399840217
  30
13.7064248613521
  40
0.1
   1
B78
   2
POINT_NUMBER
  70
0
  72
1
  11
7.53210042028341
  21
12.4142399840217
  31
13.7064248613521
  71
0
   0
SEQEND
   8
0
  62
1
   0
INSERT
   8
ATRIUM HOCH
  62
256
   6
BYLAYER
  66
1
   2
POINT
  10
7.67470487392942
  20
12.3150213029863
  30
13.7079010260698
   0
ATTRIB
   8
POINTNUMBERS
  62
7
  10
7.67470487392942
  20
12.4150213029863
  30
13.7079010260698
  40
0.1
   1
B79
   2
POINT_NUMBER
  70
0
  72
1
  11
7.67470487392942
  21
12.4150213029863
  31
13.7079010260698
  71
0
   0
SEQEND
   8
0
  62
1
   0
INSERT
   8
ATRIUM HOCH
  62
256
   6
BYLAYER
  66
1
   2
POINT
  10
7.67987593294734
  20
12.3116290622153
  30
13.7837635512831
   0
ATTRIB
   8
POINTNUMBERS
  62
7
  10
7.67987593294734
  20
12.4116290622153
  30
13.7837635512831
  40
0.1
   1
B80
   2
POINT_NUMBER
  70
0
  72
1
  11
7.67987593294734
  21
12.4116290622153
  31
13.7837635512831
  71
0
   0
SEQEND
   8
0
  62
1
   0
INSERT
   8
ATRIUM HOCH
  62
256
   6
BYLAYER
  66
1
   2
POINT
  10
-0.000383505196106526
  20
1.33201357295768
  30
14.6965403201481
   0
ATTRIB
   8
POINTNUMBERS
  62
7
  10
-0.000383505196106526
  20
1.43201357295768
  30
14.6965403201481
  40
0.1
   1
K1
   2
POINT_NUMBER
  70
0
  72
1
  11
-0.000383505196106526
  21
1.43201357295768
  31
14.6965403201481
  71
0
   0
SEQEND
   8
0
  62
1
   0
INSERT
   8
ATRIUM HOCH
  62
256
   6
BYLAYER
  66
1
   2
POINT
  10
0.00141762356725295
  20
1.50426883085383
  30
14.6795103339069
   0
ATTRIB
   8
POINTNUMBERS
  62
7
  10
0.00141762356725295
  20
1.60426883085383
  30
14.6795103339069
  40
0.1
   1
K2
   2
POINT_NUMBER
  70
0
  72
1
  11
0.00141762356725295
  21
1.60426883085383
  31
14.6795103339069
  71
0
   0
SEQEND
   8
0
  62
1
   0
INSERT
   8
ATRIUM HOCH
  62
256
   6
BYLAYER
  66
1
   2
POINT
  10
0.00218002958480312
  20
1.52374746536931
  30
14.4065322482894
   0
ATTRIB
   8
POINTNUMBERS
  62
7
  10
0.00218002958480312
  20
1.62374746536931
  30
14.4065322482894
  40
0.1
   1
K3
   2
POINT_NUMBER
  70
0
  72
1
  11
0.00218002958480312
  21
1.62374746536931
  31
14.4065322482894
  71
0
   0
SEQEND
   8
0
  62
1
   0
INSERT
   8
ATRIUM HOCH
  62
256
   6
BYLAYER
  66
1
   2
POINT
  10
0.00127375674966146
  20
1.32950812449488
  30
14.408144303404
   0
ATTRIB
   8
POINTNUMBERS
  62
7
  10
0.00127375674966146
  20
1.42950812449488
  30
14.408144303404
  40
0.1
   1
K4
   2
POINT_NUMBER
  70
0
  72
1
  11
0.00127375674966146
  21
1.42950812449488
  31
14.408144303404
  71
0
   0
SEQEND
   8
0
  62
1
   0
INSERT
   8
ATRIUM HOCH
  62
256
   6
BYLAYER
  66
1
   2
POINT
  10
0.000846621423486127
  20
1.4160043652814
  30
14.5482278703171
   0
ATTRIB
   8
POINTNUMBERS
  62
7
  10
0.000846621423486127
  20
1.5160043652814
  30
14.5482278703171
  40
0.1
   1
K5
   2
POINT_NUMBER
  70
0
  72
1
  11
0.000846621423486127
  21
1.5160043652814
  31
14.5482278703171
  71
0
   0
SEQEND
   8
0
  62
1
   0
INSERT
   8
ATRIUM HOCH
  62
256
   6
BYLAYER
  66
1
   2
POINT
  10
0.00655676491772894
  20
5.33145001390508
  30
14.6869330749127
   0
ATTRIB
   8
POINTNUMBERS
  62
7
  10
0.00655676491772894
  20
5.43145001390508
  30
14.6869330749127
  40
0.1
   1
K6
   2
POINT_NUMBER
  70
0
  72
1
  11
0.00655676491772894
  21
5.43145001390508
  31
14.6869330749127
  71
0
   0
SEQEND
   8
0
  62
1
   0
INSERT
   8
ATRIUM HOCH
  62
256
   6
BYLAYER
  66
1
   2
POINT
  10
0.00662921567278474
  20
5.34848458131464
  30
14.4118746744142
   0
ATTRIB
   8
POINTNUMBERS
  62
7
  10
0.00662921567278474
  20
5.44848458131464
  30
14.4118746744142
  40
0.1
   1
K7
   2
POINT_NUMBER
  70
0
  72
1
  11
0.00662921567278474
  21
5.44848458131464
  31
14.4118746744142
  71
0
   0
SEQEND
   8
0
  62
1
   0
INSERT
   8
ATRIUM HOCH
  62
256
   6
BYLAYER
  66
1
   2
POINT
  10
0.0120833677200789
  20
5.52100446131147
  30
14.3936921898163
   0
ATTRIB
   8
POINTNUMBERS
  62
7
  10
0.0120833677200789
  20
5.62100446131147
  30
14.3936921898163
  40
0.1
   1
K8
   2
POINT_NUMBER
  70
0
  72
1
  11
0.0120833677200789
  21
5.62100446131147
  31
14.3936921898163
  71
0
   0
SEQEND
   8
0
  62
1
   0
INSERT
   8
ATRIUM HOCH
  62
256
   6
BYLAYER
  66
1
   2
POINT
  10
0.00855077226574608
  20
5.52067266068032
  30
14.6893866460173
   0
ATTRIB
   8
POINTNUMBERS
  62
7
  10
0.00855077226574608
  20
5.62067266068032
  30
14.6893866460173
  40
0.1
   1
K9
   2
POINT_NUMBER
  70
0
  72
1
  11
0.00855077226574608
  21
5.62067266068032
  31
14.6893866460173
  71
0
   0
SEQEND
   8
0
  62
1
   0
INSERT
   8
ATRIUM HOCH
  62
256
   6
BYLAYER
  66
1
   2
POINT
  10
0.00832094163019015
  20
5.42469952372265
  30
14.5575870764115
   0
ATTRIB
   8
POINTNUMBERS
  62
7
  10
0.00832094163019015
  20
5.52469952372265
  30
14.5575870764115
  40
0.1
   1
K10
   2
POINT_NUMBER
  70
0
  72
1
  11
0.00832094163019015
  21
5.52469952372265
  31
14.5575870764115
  71
0
   0
SEQEND
   8
0
  62
1
   0
INSERT
   8
ATRIUM HOCH
  62
256
   6
BYLAYER
  66
1
   2
POINT
  10
0.00312244807994233
  20
6.34177114849409
  30
14.6784800161399
   0
ATTRIB
   8
POINTNUMBERS
  62
7
  10
0.00312244807994233
  20
6.44177114849408
  30
14.6784800161399
  40
0.1
   1
K11
   2
POINT_NUMBER
  70
0
  72
1
  11
0.00312244807994233
  21
6.44177114849408
  31
14.6784800161399
  71
0
   0
SEQEND
   8
0
  62
1
   0
INSERT
   8
ATRIUM HOCH
  62
256
   6
BYLAYER
  66
1
   2
POINT
  10
0.00629308314010757
  20
6.5206781887359
  30
14.6915953329677
   0
ATTRIB
   8
POINTNUMBERS
  62
7
  10
0.00629308314010757
  20
6.6206781887359
  30
14.6915953329677
  40
0.1
   1
K12
   2
POINT_NUMBER
  70
0
  72
1
  11
0.00629308314010757
  21
6.6206781887359
  31
14.6915953329677
  71
0
   0
SEQEND
   8
0
  62
1
   0
INSERT
   8
ATRIUM HOCH
  62
256
   6
BYLAYER
  66
1
   2
POINT
  10
0.005829722880204
  20
6.51969524919406
  30
14.3985970508647
   0
ATTRIB
   8
POINTNUMBERS
  62
7
  10
0.005829722880204
  20
6.61969524919405
  30
14.3985970508647
  40
0.1
   1
K13
   2
POINT_NUMBER
  70
0
  72
1
  11
0.005829722880204
  21
6.61969524919405
  31
14.3985970508647
  71
0
   0
SEQEND
   8
0
  62
1
   0
INSERT
   8
ATRIUM HOCH
  62
256
   6
BYLAYER
  66
1
   2
POINT
  10
0.00863678163909221
  20
6.32318087742832
  30
14.3939538819622
   0
ATTRIB
   8
POINTNUMBERS
  62
7
  10
0.00863678163909221
  20
6.42318087742832
  30
14.3939538819622
  40
0.1
   1
K14
   2
POINT_NUMBER
  70
0
  72
1
  11
0.00863678163909221
  21
6.42318087742832
  31
14.3939538819622
  71
0
   0
SEQEND
   8
0
  62
1
   0
INSERT
   8
ATRIUM HOCH
  62
256
   6
BYLAYER
  66
1
   2
POINT
  10
0.00569652470718118
  20
6.42756212651952
  30
14.5858600920202
   0
ATTRIB
   8
POINTNUMBERS
  62
7
  10
0.00569652470718118
  20
6.52756212651952
  30
14.5858600920202
  40
0.1
   1
K15
   2
POINT_NUMBER
  70
0
  72
1
  11
0.00569652470718118
  21
6.52756212651952
  31
14.5858600920202
  71
0
   0
SEQEND
   8
0
  62
1
   0
INSERT
   8
ATRIUM HOCH
  62
256
   6
BYLAYER
  66
1
   2
POINT
  10
0.00793812933592442
  20
3.33012849235567
  30
14.7019738101949
   0
ATTRIB
   8
POINTNUMBERS
  62
7
  10
0.00793812933592442
  20
3.43012849235567
  30
14.7019738101949
  40
0.1
   1
K16
   2
POINT_NUMBER
  70
0
  72
1
  11
0.00793812933592442
  21
3.43012849235567
  31
14.7019738101949
  71
0
   0
SEQEND
   8
0
  62
1
   0
INSERT
   8
ATRIUM HOCH
  62
256
   6
BYLAYER
  66
1
   2
POINT
  10
0.00870758509124059
  20
3.51204458275681
  30
14.6771326440067
   0
ATTRIB
   8
POINTNUMBERS
  62
7
  10
0.00870758509124059
  20
3.61204458275681
  30
14.6771326440067
  40
0.1
   1
K17
   2
POINT_NUMBER
  70
0
  72
1
  11
0.00870758509124059
  21
3.61204458275681
  31
14.6771326440067
  71
0
   0
SEQEND
   8
0
  62
1
   0
INSERT
   8
ATRIUM HOCH
  62
256
   6
BYLAYER
  66
1
   2
POINT
  10
0.0071293685298599
  20
3.52047857783802
  30
14.4102147040799
   0
ATTRIB
   8
POINTNUMBERS
  62
7
  10
0.0071293685298599
  20
3.62047857783802
  30
14.4102147040799
  40
0.1
   1
K18
   2
POINT_NUMBER
  70
0
  72
1
  11
0.0071293685298599
  21
3.62047857783802
  31
14.4102147040799
  71
0
   0
SEQEND
   8
0
  62
1
   0
INSERT
   8
ATRIUM HOCH
  62
256
   6
BYLAYER
  66
1
   2
POINT
  10
0.0057826749997556
  20
3.32189579798723
  30
14.4134036091889
   0
ATTRIB
   8
POINTNUMBERS
  62
7
  10
0.0057826749997556
  20
3.42189579798723
  30
14.4134036091889
  40
0.1
   1
K19
   2
POINT_NUMBER
  70
0
  72
1
  11
0.0057826749997556
  21
3.42189579798723
  31
14.4134036091889
  71
0
   0
SEQEND
   8
0
  62
1
   0
INSERT
   8
ATRIUM HOCH
  62
256
   6
BYLAYER
  66
1
   2
POINT
  10
0.00800777010841003
  20
3.42308676383507
  30
14.6152922645955
   0
ATTRIB
   8
POINTNUMBERS
  62
7
  10
0.00800777010841003
  20
3.52308676383507
  30
14.6152922645955
  40
0.1
   1
K20
   2
POINT_NUMBER
  70
0
  72
1
  11
0.00800777010841003
  21
3.52308676383507
  31
14.6152922645955
  71
0
   0
SEQEND
   8
0
  62
1
   0
INSERT
   8
ATRIUM HOCH
  62
256
   6
BYLAYER
  66
1
   2
POINT
  10
0.00622498470529997
  20
8.33012085579404
  30
14.6835297386042
   0
ATTRIB
   8
POINTNUMBERS
  62
7
  10
0.00622498470529997
  20
8.43012085579404
  30
14.6835297386042
  40
0.1
   1
K21
   2
POINT_NUMBER
  70
0
  72
1
  11
0.00622498470529997
  21
8.43012085579404
  31
14.6835297386042
  71
0
   0
SEQEND
   8
0
  62
1
   0
INSERT
   8
ATRIUM HOCH
  62
256
   6
BYLAYER
  66
1
   2
POINT
  10
0.00370508908546618
  20
8.50051473316036
  30
14.6896471475316
   0
ATTRIB
   8
POINTNUMBERS
  62
7
  10
0.00370508908546618
  20
8.60051473316036
  30
14.6896471475316
  40
0.1
   1
K22
   2
POINT_NUMBER
  70
0
  72
1
  11
0.00370508908546618
  21
8.60051473316036
  31
14.6896471475316
  71
0
   0
SEQEND
   8
0
  62
1
   0
INSERT
   8
ATRIUM HOCH
  62
256
   6
BYLAYER
  66
1
   2
POINT
  10
0.00790151115171156
  20
8.51569644214742
  30
14.4015762541158
   0
ATTRIB
   8
POINTNUMBERS
  62
7
  10
0.00790151115171156
  20
8.61569644214742
  30
14.4015762541158
  40
0.1
   1
K23
   2
POINT_NUMBER
  70
0
  72
1
  11
0.00790151115171156
  21
8.61569644214742
  31
14.4015762541158
  71
0
   0
SEQEND
   8
0
  62
1
   0
INSERT
   8
ATRIUM HOCH
  62
256
   6
BYLAYER
  66
1
   2
POINT
  10
0.00946184793584592
  20
8.32039860174114
  30
14.4011725608217
   0
ATTRIB
   8
POINTNUMBERS
  62
7
  10
0.00946184793584592
  20
8.42039860174114
  30
14.4011725608217
  40
0.1
   1
K24
   2
POINT_NUMBER
  70
0
  72
1
  11
0.00946184793584592
  21
8.42039860174114
  31
14.4011725608217
  71
0
   0
SEQEND
   8
0
  62
1
   0
INSERT
   8
ATRIUM HOCH
  62
256
   6
BYLAYER
  66
1
   2
POINT
  10
0.009358984522855
  20
8.42250934166619
  30
14.5082734446184
   0
ATTRIB
   8
POINTNUMBERS
  62
7
  10
0.009358984522855
  20
8.52250934166619
  30
14.5082734446184
  40
0.1
   1
K25
   2
POINT_NUMBER
  70
0
  72
1
  11
0.009358984522855
  21
8.52250934166619
  31
14.5082734446184
  71
0
   0
SEQEND
   8
0
  62
1
   0
INSERT
   8
ATRIUM HOCH
  62
256
   6
BYLAYER
  66
1
   2
POINT
  10
0.00557538612930486
  20
10.3282927546859
  30
14.6947199558402
   0
ATTRIB
   8
POINTNUMBERS
  62
7
  10
0.00557538612930486
  20
10.4282927546859
  30
14.6947199558402
  40
0.1
   1
K26
   2
POINT_NUMBER
  70
0
  72
1
  11
0.00557538612930486
  21
10.4282927546859
  31
14.6947199558402
  71
0
   0
SEQEND
   8
0
  62
1
   0
INSERT
   8
ATRIUM HOCH
  62
256
   6
BYLAYER
  66
1
   2
POINT
  10
0.0043877148800977
  20
10.5177204265179
  30
14.6958930348498
   0
ATTRIB
   8
POINTNUMBERS
  62
7
  10
0.0043877148800977
  20
10.6177204265179
  30
14.6958930348498
  40
0.1
   1
K27
   2
POINT_NUMBER
  70
0
  72
1
  11
0.0043877148800977
  21
10.6177204265179
  31
14.6958930348498
  71
0
   0
SEQEND
   8
0
  62
1
   0
INSERT
   8
ATRIUM HOCH
  62
256
   6
BYLAYER
  66
1
   2
POINT
  10
0.00483645202403515
  20
10.5175209792117
  30
14.4041747964816
   0
ATTRIB
   8
POINTNUMBERS
  62
7
  10
0.00483645202403515
  20
10.6175209792117
  30
14.4041747964816
  40
0.1
   1
K28
   2
POINT_NUMBER
  70
0
  72
1
  11
0.00483645202403515
  21
10.6175209792117
  31
14.4041747964816
  71
0
   0
SEQEND
   8
0
  62
1
   0
INSERT
   8
ATRIUM HOCH
  62
256
   6
BYLAYER
  66
1
   2
POINT
  10
0.00466314517390209
  20
10.324045492444
  30
14.4060145804163
   0
ATTRIB
   8
POINTNUMBERS
  62
7
  10
0.00466314517390209
  20
10.424045492444
  30
14.4060145804163
  40
0.1
   1
K29
   2
POINT_NUMBER
  70
0
  72
1
  11
0.00466314517390209
  21
10.424045492444
  31
14.4060145804163
  71
0
   0
SEQEND
   8
0
  62
1
   0
INSERT
   8
ATRIUM HOCH
  62
256
   6
BYLAYER
  66
1
   2
POINT
  10
0.00507293008164211
  20
10.4342574563147
  30
14.5892145012374
   0
ATTRIB
   8
POINTNUMBERS
  62
7
  10
0.00507293008164211
  20
10.5342574563147
  30
14.5892145012374
  40
0.1
   1
K30
   2
POINT_NUMBER
  70
0
  72
1
  11
0.00507293008164211
  21
10.5342574563147
  31
14.5892145012374
  71
0
   0
SEQEND
   8
0
  62
1
   0
INSERT
   8
ATRIUM HOCH
  62
256
   6
BYLAYER
  66
1
   2
POINT
  10
0.00208626908080944
  20
1.42503411839691
  30
14.4025032691467
   0
ATTRIB
   8
POINTNUMBERS
  62
7
  10
0.00208626908080944
  20
1.52503411839691
  30
14.4025032691467
  40
0.1
   1
K31
   2
POINT_NUMBER
  70
0
  72
1
  11
0.00208626908080944
  21
1.52503411839691
  31
14.4025032691467
  71
0
   0
SEQEND
   8
0
  62
1
   0
INSERT
   8
ATRIUM HOCH
  62
256
   6
BYLAYER
  66
1
   2
POINT
  10
0.00716747986016308
  20
3.43495342882685
  30
14.4064642324412
   0
ATTRIB
   8
POINTNUMBERS
  62
7
  10
0.00716747986016308
  20
3.53495342882685
  30
14.4064642324412
  40
0.1
   1
K32
   2
POINT_NUMBER
  70
0
  72
1
  11
0.00716747986016308
  21
3.53495342882685
  31
14.4064642324412
  71
0
   0
SEQEND
   8
0
  62
1
   0
INSERT
   8
ATRIUM HOCH
  62
256
   6
BYLAYER
  66
1
   2
POINT
  10
0.00907619453750286
  20
5.41509668528268
  30
14.389335523834
   0
ATTRIB
   8
POINTNUMBERS
  62
7
  10
0.00907619453750286
  20
5.51509668528268
  30
14.389335523834
  40
0.1
   1
K33
   2
POINT_NUMBER
  70
0
  72
1
  11
0.00907619453750286
  21
5.51509668528268
  31
14.389335523834
  71
0
   0
SEQEND
   8
0
  62
1
   0
INSERT
   8
ATRIUM HOCH
  62
256
   6
BYLAYER
  66
1
   2
POINT
  10
0.0072825347963299
  20
6.44110552716652
  30
14.3889603729369
   0
ATTRIB
   8
POINTNUMBERS
  62
7
  10
0.0072825347963299
  20
6.54110552716652
  30
14.3889603729369
  40
0.1
   1
K34
   2
POINT_NUMBER
  70
0
  72
1
  11
0.0072825347963299
  21
6.54110552716652
  31
14.3889603729369
  71
0
   0
SEQEND
   8
0
  62
1
   0
INSERT
   8
ATRIUM HOCH
  62
256
   6
BYLAYER
  66
1
   2
POINT
  10
0.00852238319905041
  20
8.42667557886558
  30
14.3983261093206
   0
ATTRIB
   8
POINTNUMBERS
  62
7
  10
0.00852238319905041
  20
8.52667557886558
  30
14.3983261093206
  40
0.1
   1
K35
   2
POINT_NUMBER
  70
0
  72
1
  11
0.00852238319905041
  21
8.52667557886558
  31
14.3983261093206
  71
0
   0
SEQEND
   8
0
  62
1
   0
INSERT
   8
ATRIUM HOCH
  62
256
   6
BYLAYER
  66
1
   2
POINT
  10
0.00475639014585916
  20
10.4165354079608
  30
14.4001651165448
   0
ATTRIB
   8
POINTNUMBERS
  62
7
  10
0.00475639014585916
  20
10.5165354079608
  30
14.4001651165448
  40
0.1
   1
K36
   2
POINT_NUMBER
  70
0
  72
1
  11
0.00475639014585916
  21
10.5165354079608
  31
14.4001651165448
  71
0
   0
SEQEND
   8
0
  62
1
   0
ENDSEC
   0
EOF
