0
SECTION
2
HEADER
9
$ACADVER
1
AC1006
9
$INSBASE
10
0.0
20
0.0
30
0.0
9
$INSUNITS
70
4
9
$EXTMIN
10
-83.770
20
-8.250
9
$EXTMAX
10
1297.770
20
432.310
0
ENDSEC
0
SECTION
2
TABLES
0
TABLE
2
LTYPE
70
1
0
LTYPE
2
CONTINUOUS
70
64
3
Solid line
72
65
73
0
40
0.000000
0
ENDTAB
0
TABLE
2
LAYER
70
8
0
LAYER
2
PIECE34
70
64
62
7
6
CONTINUOUS
0
LAYER
2
CONTOUR
70
64
62
7
6
CONTINUOUS
0
LAYER
2
PROFIL_MARCHE
70
64
62
7
6
CONTINUOUS
0
LAYER
2
PROFIL_MINUS
70
64
62
7
6
CONTINUOUS
0
LAYER
2
COUPE_MARCHE
70
64
62
7
6
CONTINUOUS
0
LAYER
2
EXTRATREADFRONTPROFILELINES
70
64
62
7
6
CONTINUOUS
0
LAYER
2
EXTRATREADBACKPROFILELINES
70
64
62
7
6
CONTINUOUS
0
ENDTAB
0
TABLE
2
STYLE
70
0
0
ENDTAB
0
ENDSEC
0
SECTION
2
BLOCKS
0
ENDSEC
0
SECTION
2
ENTITIES
0
POLYLINE
6
0
8
PIECE34
62
0
10
0
20
0
30
0.000
66
1
0
VERTEX
8
PIECE34
6
0
10
0.000
20
370.790
30
0
0
VERTEX
8
PIECE34
6
0
10
0.000
20
0.000
30
0
0
VERTEX
8
PIECE34
6
0
10
1216.210
20
0.000
30
0
0
VERTEX
8
PIECE34
6
0
10
1216.210
20
370.790
30
0
0
VERTEX
8
PIECE34
6
0
10
0.000
20
370.790
30
0
0
SEQEND
0
POLYLINE
6
0
8
CONTOUR
62
0
10
0
20
0
30
0.000
66
1
0
VERTEX
8
CONTOUR
6
0
10
1199.920
20
179.230
30
0
0
VERTEX
8
CONTOUR
6
0
10
1211.210
20
169.350
30
0
0
VERTEX
8
CONTOUR
6
0
10
1067.390
20
5.000
30
0
0
VERTEX
8
CONTOUR
6
0
10
1047.460
20
5.000
30
0
0
VERTEX
8
CONTOUR
6
0
10
16.230
20
5.000
30
0
0
VERTEX
8
CONTOUR
6
0
10
5.000
20
14.940
30
0
0
VERTEX
8
CONTOUR
6
0
10
315.390
20
365.790
30
0
0
VERTEX
8
CONTOUR
6
0
10
332.270
20
362.230
30
0
0
VERTEX
8
CONTOUR
6
0
10
1199.920
20
179.230
30
0
0
SEQEND
0
POLYLINE
6
0
8
PROFIL_MARCHE
62
0
10
0
20
0
30
0.000
66
1
0
VERTEX
8
PROFIL_MARCHE
6
0
10
315.390
20
365.790
30
0
0
VERTEX
8
PROFIL_MARCHE
6
0
10
332.270
20
362.230
30
0
0
VERTEX
8
PROFIL_MARCHE
6
0
10
1199.920
20
179.230
30
0
0
VERTEX
8
PROFIL_MARCHE
6
0
10
1211.210
20
169.350
30
0
0
SEQEND
0
POLYLINE
6
0
8
PROFIL_MARCHE
62
0
10
0
20
0
30
0.000
66
1
0
VERTEX
8
PROFIL_MARCHE
6
0
10
1067.390
20
5.000
30
0
0
VERTEX
8
PROFIL_MARCHE
6
0
10
1047.460
20
5.000
30
0
0
VERTEX
8
PROFIL_MARCHE
6
0
10
16.230
20
5.000
30
0
0
VERTEX
8
PROFIL_MARCHE
6
0
10
5.000
20
14.940
30
0
0
SEQEND
0
POLYLINE
6
0
8
PROFIL_MINUS
62
0
10
0
20
0
30
0.000
66
1
0
VERTEX
8
PROFIL_MINUS
6
0
10
1211.210
20
169.350
30
0
0
VERTEX
8
PROFIL_MINUS
6
0
10
1067.390
20
5.000
30
0
0
SEQEND
0
POLYLINE
6
0
8
PROFIL_MINUS
62
0
10
0
20
0
30
0.000
66
1
0
VERTEX
8
PROFIL_MINUS
6
0
10
5.000
20
14.940
30
0
0
VERTEX
8
PROFIL_MINUS
6
0
10
315.390
20
365.790
30
0
0
SEQEND
0
LINE
8
COUPE_MARCHE
62
1
10
0.000
20
432.310
30
0
11
1216.210
21
175.790
31
0
0
LINE
8
EXTRATREADFRONTPROFILELINES
62
2
10
1147.460
20
5.000
30
0
11
-83.770
21
5.000
31
0
0
LINE
8
EXTRATREADFRONTPROFILELINES
62
2
10
31.210
20
-8.250
30
0
11
-9.980
21
28.190
31
0
0
LINE
8
EXTRATREADBACKPROFILELINES
62
2
10
234.430
20
382.870
30
0
11
1297.770
21
158.590
31
0
0
LINE
8
EXTRATREADBACKPROFILELINES
62
2
10
1184.870
20
192.400
30
0
11
1226.260
21
156.180
31
0
0
ENDSEC
0
EOF
