ISO-10303-21;
HEADER;
FILE_DESCRIPTION (( 'STEP AP214' ),
    '1' );
FILE_NAME ('Up 01_PART.STEP',
    '2021-12-06T13:11:17',
    ( '' ),
    ( '' ),
    'SwSTEP 2.0',
    'SolidWorks 2021',
    '' );
FILE_SCHEMA (( 'AUTOMOTIVE_DESIGN' ));
ENDSEC;

DATA;
#1 = MANIFOLD_SOLID_BREP ( 'Boss-Extrude1', #51 ) ;
#2 = CARTESIAN_POINT ( 'NONE',  ( -25.00000000000001421, 12.50000000000000000, 99.99999999999998579 ) ) ;
#3 = CARTESIAN_POINT ( 'NONE',  ( -25.00000000000001421, -12.50000000000000000, 99.99999999999998579 ) ) ;
#4 = STYLED_ITEM ( 'NONE', ( #262 ), #1 ) ;
#5 = CARTESIAN_POINT ( 'NONE',  ( 50.00000000000000000, 12.50000000000000000, 100.0000000000000000 ) ) ;
#6 = LINE ( 'NONE', #160, #27 ) ;
#7 = ORIENTED_EDGE ( 'NONE', *, *, #155, .T. ) ;
#8 = LINE ( 'NONE', #34, #32 ) ;
#9 = VECTOR ( 'NONE', #183, 1000.000000000000000 ) ;
#10 = ORIENTED_EDGE ( 'NONE', *, *, #281, .F. ) ;
#11 = CARTESIAN_POINT ( 'NONE',  ( -50.00000000000000000, -12.50000000000000000, 100.0000000000000000 ) ) ;
#12 = ORIENTED_EDGE ( 'NONE', *, *, #240, .F. ) ;
#13 = FACE_OUTER_BOUND ( 'NONE', #48, .T. ) ;
#14 = ADVANCED_FACE ( 'NONE', ( #224 ), #77, .F. ) ;
#15 = ORIENTED_EDGE ( 'NONE', *, *, #108, .T. ) ;
#16 =( LENGTH_UNIT ( ) NAMED_UNIT ( * ) SI_UNIT ( .MILLI., .METRE. ) );
#17 = ORIENTED_EDGE ( 'NONE', *, *, #146, .T. ) ;
#18 = VECTOR ( 'NONE', #284, 1000.000000000000000 ) ;
#19 = PRODUCT_DEFINITION_FORMATION_WITH_SPECIFIED_SOURCE ( 'ANY', '', #301, .NOT_KNOWN. ) ;
#20 = ORIENTED_EDGE ( 'NONE', *, *, #292, .T. ) ;
#21 = CARTESIAN_POINT ( 'NONE',  ( -25.00000000000000000, -12.50000000000000000, 0.000000000000000000 ) ) ;
#22 =( NAMED_UNIT ( * ) SI_UNIT ( $, .STERADIAN. ) SOLID_ANGLE_UNIT ( ) );
#23 = FACE_OUTER_BOUND ( 'NONE', #162, .T. ) ;
#24 = EDGE_CURVE ( 'NONE', #213, #290, #172, .T. ) ;
#25 = DIRECTION ( 'NONE',  ( 1.000000000000000000, 0.000000000000000000, -5.551115123125785660E-16 ) ) ;
#26 = CARTESIAN_POINT ( 'NONE',  ( 25.00000000000001421, -12.50000000000000000, 99.99999999999998579 ) ) ;
#27 = VECTOR ( 'NONE', #179, 1000.000000000000114 ) ;
#28 = DIRECTION ( 'NONE',  ( -0.4472135954999579277, -0.000000000000000000, -0.8944271909999158554 ) ) ;
#29 = LINE ( 'NONE', #73, #39 ) ;
#30 = ORIENTED_EDGE ( 'NONE', *, *, #277, .F. ) ;
#31 = LINE ( 'NONE', #100, #137 ) ;
#32 = VECTOR ( 'NONE', #227, 1000.000000000000000 ) ;
#33 = ORIENTED_EDGE ( 'NONE', *, *, #129, .T. ) ;
#34 = CARTESIAN_POINT ( 'NONE',  ( -25.00000000000001421, -12.50000000000000000, 99.99999999999998579 ) ) ;
#35 = EDGE_CURVE ( 'NONE', #192, #149, #133, .T. ) ;
#36 = VERTEX_POINT ( 'NONE', #222 ) ;
#37 = ORIENTED_EDGE ( 'NONE', *, *, #247, .F. ) ;
#38 = VERTEX_POINT ( 'NONE', #244 ) ;
#39 = VECTOR ( 'NONE', #55, 1000.000000000000000 ) ;
#40 = LINE ( 'NONE', #194, #174 ) ;
#41 =( NAMED_UNIT ( * ) PLANE_ANGLE_UNIT ( ) SI_UNIT ( $, .RADIAN. ) );
#42 = DIRECTION ( 'NONE',  ( 0.8944271909999159664, 0.000000000000000000, -0.4472135954999579832 ) ) ;
#43 =( LENGTH_UNIT ( ) NAMED_UNIT ( * ) SI_UNIT ( .MILLI., .METRE. ) );
#44 = UNCERTAINTY_MEASURE_WITH_UNIT (LENGTH_MEASURE( 1.000000000000000082E-05 ), #43, 'distance_accuracy_value', 'NONE');
#45 = AXIS2_PLACEMENT_3D ( 'NONE', #21, #86, #92 ) ;
#46 = VECTOR ( 'NONE', #25, 1000.000000000000000 ) ;
#47 = CARTESIAN_POINT ( 'NONE',  ( 0.000000000000000000, 12.50000000000000000, 200.0000000000000000 ) ) ;
#48 = EDGE_LOOP ( 'NONE', ( #57, #268, #10, #37, #79, #75, #169 ) ) ;
#49 = CARTESIAN_POINT ( 'NONE',  ( 25.00000000000000000, 12.50000000000000000, 0.000000000000000000 ) ) ;
#50 = DIRECTION ( 'NONE',  ( 0.000000000000000000, 1.000000000000000000, -0.000000000000000000 ) ) ;
#51 = CLOSED_SHELL ( 'NONE', ( #175, #153, #165, #232, #87, #173, #14, #70, #257 ) ) ;
#52 = LINE ( 'NONE', #5, #182 ) ;
#53 = CARTESIAN_POINT ( 'NONE',  ( 25.00000000000001421, -12.50000000000000000, 99.99999999999998579 ) ) ;
#54 = PRODUCT_DEFINITION ( 'UNKNOWN', '', #19, #300 ) ;
#55 = DIRECTION ( 'NONE',  ( 0.000000000000000000, 1.000000000000000000, -0.000000000000000000 ) ) ;
#56 =( GEOMETRIC_REPRESENTATION_CONTEXT ( 3 ) GLOBAL_UNCERTAINTY_ASSIGNED_CONTEXT ( ( #115 ) ) GLOBAL_UNIT_ASSIGNED_CONTEXT ( ( #16, #41, #167 ) ) REPRESENTATION_CONTEXT ( 'NONE', 'WORKASPACE' ) );
#57 = ORIENTED_EDGE ( 'NONE', *, *, #82, .F. ) ;
#58 =( NAMED_UNIT ( * ) SI_UNIT ( $, .STERADIAN. ) SOLID_ANGLE_UNIT ( ) );
#59 = ORIENTED_EDGE ( 'NONE', *, *, #74, .T. ) ;
#60 = ORIENTED_EDGE ( 'NONE', *, *, #82, .T. ) ;
#61 = PLANE ( 'NONE',  #204 ) ;
#62 = COLOUR_RGB ( '',0.7529411764705882248, 0.7529411764705882248, 0.7529411764705882248 ) ;
#63 = DIRECTION ( 'NONE',  ( -0.4472135954999579277, 0.000000000000000000, 0.8944271909999158554 ) ) ;
#64 = APPLICATION_CONTEXT ( 'automotive_design' ) ;
#65 = CARTESIAN_POINT ( 'NONE',  ( -25.00000000000001421, 12.50000000000000000, 99.99999999999998579 ) ) ;
#66 = VECTOR ( 'NONE', #28, 1000.000000000000114 ) ;
#67 = CARTESIAN_POINT ( 'NONE',  ( -50.00000000000000000, 12.50000000000000000, 100.0000000000000000 ) ) ;
#68 = DIRECTION ( 'NONE',  ( 0.000000000000000000, 1.000000000000000000, -0.000000000000000000 ) ) ;
#69 = DIRECTION ( 'NONE',  ( 0.000000000000000000, 1.000000000000000000, -0.000000000000000000 ) ) ;
#70 = ADVANCED_FACE ( 'NONE', ( #23 ), #217, .F. ) ;
#71 = CARTESIAN_POINT ( 'NONE',  ( 25.00000000000001421, 12.50000000000000000, 99.99999999999998579 ) ) ;
#72 = CARTESIAN_POINT ( 'NONE',  ( 0.000000000000000000, -12.50000000000000000, 200.0000000000000000 ) ) ;
#73 = CARTESIAN_POINT ( 'NONE',  ( -50.00000000000000000, -12.50000000000000000, 100.0000000000000000 ) ) ;
#74 = EDGE_CURVE ( 'NONE', #256, #38, #197, .T. ) ;
#75 = ORIENTED_EDGE ( 'NONE', *, *, #35, .F. ) ;
#76 = PLANE ( 'NONE',  #200 ) ;
#77 = PLANE ( 'NONE',  #114 ) ;
#78 = AXIS2_PLACEMENT_3D ( 'NONE', #53, #117, #94 ) ;
#79 = ORIENTED_EDGE ( 'NONE', *, *, #129, .F. ) ;
#80 = EDGE_LOOP ( 'NONE', ( #60, #270, #83, #17 ) ) ;
#81 = PRESENTATION_STYLE_ASSIGNMENT (( #104 ) ) ;
#82 = EDGE_CURVE ( 'NONE', #103, #290, #111, .T. ) ;
#83 = ORIENTED_EDGE ( 'NONE', *, *, #186, .F. ) ;
#84 = DIRECTION ( 'NONE',  ( 1.000000000000000000, 0.000000000000000000, 0.000000000000000000 ) ) ;
#85 = DIRECTION ( 'NONE',  ( 0.000000000000000000, 1.000000000000000000, -0.000000000000000000 ) ) ;
#86 = DIRECTION ( 'NONE',  ( 0.000000000000000000, 0.000000000000000000, 1.000000000000000000 ) ) ;
#87 = ADVANCED_FACE ( 'NONE', ( #275 ), #225, .F. ) ;
#88 = DIRECTION ( 'NONE',  ( 0.000000000000000000, 1.000000000000000000, 0.000000000000000000 ) ) ;
#89 = DIRECTION ( 'NONE',  ( -0.4472135954999579277, -0.000000000000000000, -0.8944271909999158554 ) ) ;
#90 = ORIENTED_EDGE ( 'NONE', *, *, #93, .F. ) ;
#91 = AXIS2_PLACEMENT_3D ( 'NONE', #148, #191, #84 ) ;
#92 = DIRECTION ( 'NONE',  ( 0.000000000000000000, -1.000000000000000000, 0.000000000000000000 ) ) ;
#93 = EDGE_CURVE ( 'NONE', #234, #124, #154, .T. ) ;
#94 = DIRECTION ( 'NONE',  ( -1.387778780781445922E-16, -0.000000000000000000, -1.000000000000000000 ) ) ;
#95 = DIRECTION ( 'NONE',  ( 1.000000000000000000, 0.000000000000000000, 0.000000000000000000 ) ) ;
#96 = DIRECTION ( 'NONE',  ( 1.000000000000000000, 0.000000000000000000, 1.387778780781445922E-16 ) ) ;
#97 = SURFACE_STYLE_FILL_AREA ( #237 ) ;
#98 = FACE_OUTER_BOUND ( 'NONE', #203, .T. ) ;
#99 = ORIENTED_EDGE ( 'NONE', *, *, #199, .T. ) ;
#100 = CARTESIAN_POINT ( 'NONE',  ( -25.00000000000000000, -12.50000000000000000, 0.000000000000000000 ) ) ;
#101 = ORIENTED_EDGE ( 'NONE', *, *, #216, .F. ) ;
#102 = VECTOR ( 'NONE', #261, 1000.000000000000000 ) ;
#103 = VERTEX_POINT ( 'NONE', #202 ) ;
#104 = SURFACE_STYLE_USAGE ( .BOTH. , #188 ) ;
#105 = EDGE_LOOP ( 'NONE', ( #189, #214, #168, #7 ) ) ;
#106 = CARTESIAN_POINT ( 'NONE',  ( 0.000000000000000000, 12.50000000000000000, 200.0000000000000000 ) ) ;
#107 = FILL_AREA_STYLE ('',( #220 ) ) ;
#108 = EDGE_CURVE ( 'NONE', #290, #192, #254, .T. ) ;
#109 = CARTESIAN_POINT ( 'NONE',  ( 0.000000000000000000, -12.50000000000000000, 0.000000000000000000 ) ) ;
#110 = AXIS2_PLACEMENT_3D ( 'NONE', #161, #288, #282 ) ;
#111 = LINE ( 'NONE', #106, #121 ) ;
#112 = CARTESIAN_POINT ( 'NONE',  ( 25.00000000000001421, 12.50000000000000000, 99.99999999999998579 ) ) ;
#113 = VECTOR ( 'NONE', #50, 1000.000000000000000 ) ;
#114 = AXIS2_PLACEMENT_3D ( 'NONE', #152, #272, #150 ) ;
#115 = UNCERTAINTY_MEASURE_WITH_UNIT (LENGTH_MEASURE( 1.000000000000000082E-05 ), #16, 'distance_accuracy_value', 'NONE');
#116 = CARTESIAN_POINT ( 'NONE',  ( 25.00000000000000000, -12.50000000000000000, 0.000000000000000000 ) ) ;
#117 = DIRECTION ( 'NONE',  ( -1.000000000000000000, 0.000000000000000000, 1.387778780781445922E-16 ) ) ;
#118 = CARTESIAN_POINT ( 'NONE',  ( -25.00000000000000000, 12.50000000000000000, 0.000000000000000000 ) ) ;
#119 = ORIENTED_EDGE ( 'NONE', *, *, #292, .F. ) ;
#120 = CARTESIAN_POINT ( 'NONE',  ( -25.00000000000000000, -12.50000000000000000, 0.000000000000000000 ) ) ;
#121 = VECTOR ( 'NONE', #63, 1000.000000000000114 ) ;
#122 = ORIENTED_EDGE ( 'NONE', *, *, #93, .T. ) ;
#123 = LINE ( 'NONE', #229, #66 ) ;
#124 = VERTEX_POINT ( 'NONE', #201 ) ;
#125 = VERTEX_POINT ( 'NONE', #112 ) ;
#126 = VECTOR ( 'NONE', #128, 1000.000000000000000 ) ;
#127 = ORIENTED_EDGE ( 'NONE', *, *, #277, .T. ) ;
#128 = DIRECTION ( 'NONE',  ( 1.387778780781445922E-16, 0.000000000000000000, 1.000000000000000000 ) ) ;
#129 = EDGE_CURVE ( 'NONE', #149, #36, #295, .T. ) ;
#130 = DIRECTION ( 'NONE',  ( 0.4472135954999579277, 0.000000000000000000, 0.8944271909999158554 ) ) ;
#131 = EDGE_CURVE ( 'NONE', #124, #289, #219, .T. ) ;
#132 = MECHANICAL_DESIGN_GEOMETRIC_PRESENTATION_REPRESENTATION (  '', ( #285 ), #56 ) ;
#133 = LINE ( 'NONE', #67, #46 ) ;
#134 = ORIENTED_EDGE ( 'NONE', *, *, #186, .T. ) ;
#135 =( NAMED_UNIT ( * ) PLANE_ANGLE_UNIT ( ) SI_UNIT ( $, .RADIAN. ) );
#136 = LINE ( 'NONE', #236, #242 ) ;
#137 = VECTOR ( 'NONE', #95, 1000.000000000000000 ) ;
#138 = DIRECTION ( 'NONE',  ( 0.4472135954999579277, 0.000000000000000000, -0.8944271909999158554 ) ) ;
#139 = CARTESIAN_POINT ( 'NONE',  ( 0.000000000000000000, -12.50000000000000000, 200.0000000000000000 ) ) ;
#140 = FILL_AREA_STYLE_COLOUR ( '', #223 ) ;
#141 = CARTESIAN_POINT ( 'NONE',  ( -25.00000000000001421, -12.50000000000000000, 99.99999999999998579 ) ) ;
#142 = ORIENTED_EDGE ( 'NONE', *, *, #180, .T. ) ;
#143 = DIRECTION ( 'NONE',  ( 5.551115123125786646E-16, 0.000000000000000000, 1.000000000000000000 ) ) ;
#144 = AXIS2_PLACEMENT_3D ( 'NONE', #158, #143, #258 ) ;
#145 = EDGE_LOOP ( 'NONE', ( #147, #266, #30, #99 ) ) ;
#146 = EDGE_CURVE ( 'NONE', #226, #103, #177, .T. ) ;
#147 = ORIENTED_EDGE ( 'NONE', *, *, #247, .T. ) ;
#148 = CARTESIAN_POINT ( 'NONE',  ( 0.000000000000000000, 0.000000000000000000, 0.000000000000000000 ) ) ;
#149 = VERTEX_POINT ( 'NONE', #65 ) ;
#150 = DIRECTION ( 'NONE',  ( -1.000000000000000000, -0.000000000000000000, -5.551115123125786646E-16 ) ) ;
#151 =( LENGTH_UNIT ( ) NAMED_UNIT ( * ) SI_UNIT ( .MILLI., .METRE. ) );
#152 = CARTESIAN_POINT ( 'NONE',  ( 50.00000000000000000, -12.50000000000000000, 100.0000000000000000 ) ) ;
#153 = ADVANCED_FACE ( 'NONE', ( #248 ), #61, .F. ) ;
#154 = LINE ( 'NONE', #195, #296 ) ;
#155 = EDGE_CURVE ( 'NONE', #256, #208, #259, .T. ) ;
#156 = VECTOR ( 'NONE', #85, 1000.000000000000000 ) ;
#157 = DIRECTION ( 'NONE',  ( -1.000000000000000000, 0.000000000000000000, 0.000000000000000000 ) ) ;
#158 = CARTESIAN_POINT ( 'NONE',  ( -50.00000000000000000, -12.50000000000000000, 100.0000000000000000 ) ) ;
#159 = PLANE ( 'NONE',  #78 ) ;
#160 = CARTESIAN_POINT ( 'NONE',  ( 0.000000000000000000, -12.50000000000000000, 200.0000000000000000 ) ) ;
#161 = CARTESIAN_POINT ( 'NONE',  ( 0.000000000000000000, 12.50000000000000000, 0.000000000000000000 ) ) ;
#162 = EDGE_LOOP ( 'NONE', ( #134, #215, #122, #280, #127, #59, #20 ) ) ;
#163 = DIRECTION ( 'NONE',  ( 1.000000000000000000, 0.000000000000000000, 5.551115123125785660E-16 ) ) ;
#164 = ORIENTED_EDGE ( 'NONE', *, *, #240, .T. ) ;
#165 = ADVANCED_FACE ( 'NONE', ( #98 ), #205, .F. ) ;
#166 = ORIENTED_EDGE ( 'NONE', *, *, #199, .F. ) ;
#167 =( NAMED_UNIT ( * ) SI_UNIT ( $, .STERADIAN. ) SOLID_ANGLE_UNIT ( ) );
#168 = ORIENTED_EDGE ( 'NONE', *, *, #74, .F. ) ;
#169 = ORIENTED_EDGE ( 'NONE', *, *, #108, .F. ) ;
#170 = AXIS2_PLACEMENT_3D ( 'NONE', #109, #88, #157 ) ;
#171 = CARTESIAN_POINT ( 'NONE',  ( 50.00000000000000000, -12.50000000000000000, 100.0000000000000000 ) ) ;
#172 = LINE ( 'NONE', #297, #253 ) ;
#173 = ADVANCED_FACE ( 'NONE', ( #209 ), #159, .F. ) ;
#174 = VECTOR ( 'NONE', #218, 1000.000000000000000 ) ;
#175 = ADVANCED_FACE ( 'NONE', ( #185 ), #76, .F. ) ;
#176 = DIRECTION ( 'NONE',  ( 1.387778780781445922E-16, 0.000000000000000000, -1.000000000000000000 ) ) ;
#177 = LINE ( 'NONE', #171, #156 ) ;
#178 = ORIENTED_EDGE ( 'NONE', *, *, #131, .F. ) ;
#179 = DIRECTION ( 'NONE',  ( -0.4472135954999579277, 0.000000000000000000, 0.8944271909999158554 ) ) ;
#180 = EDGE_CURVE ( 'NONE', #125, #103, #52, .T. ) ;
#181 = DIRECTION ( 'NONE',  ( -0.8944271909999159664, -0.000000000000000000, -0.4472135954999579832 ) ) ;
#182 = VECTOR ( 'NONE', #163, 1000.000000000000000 ) ;
#183 = DIRECTION ( 'NONE',  ( 1.000000000000000000, 0.000000000000000000, 0.000000000000000000 ) ) ;
#184 = SURFACE_SIDE_STYLE ('',( #97 ) ) ;
#185 = FACE_OUTER_BOUND ( 'NONE', #80, .T. ) ;
#186 = EDGE_CURVE ( 'NONE', #226, #213, #6, .T. ) ;
#187 = ORIENTED_EDGE ( 'NONE', *, *, #146, .F. ) ;
#188 = SURFACE_SIDE_STYLE ('',( #267 ) ) ;
#189 = ORIENTED_EDGE ( 'NONE', *, *, #281, .T. ) ;
#190 = PRESENTATION_LAYER_ASSIGNMENT (  '', '', ( #4 ) ) ;
#191 = DIRECTION ( 'NONE',  ( 0.000000000000000000, -1.000000000000000000, 0.000000000000000000 ) ) ;
#192 = VERTEX_POINT ( 'NONE', #207 ) ;
#193 = EDGE_LOOP ( 'NONE', ( #15, #12, #101, #231 ) ) ;
#194 = CARTESIAN_POINT ( 'NONE',  ( 50.00000000000000000, -12.50000000000000000, 100.0000000000000000 ) ) ;
#195 = CARTESIAN_POINT ( 'NONE',  ( -50.00000000000000000, -12.50000000000000000, 100.0000000000000000 ) ) ;
#196 = APPLICATION_PROTOCOL_DEFINITION ( 'draft international standard', 'automotive_design', 1998, #64 ) ;
#197 = LINE ( 'NONE', #274, #126 ) ;
#198 = LINE ( 'NONE', #26, #102 ) ;
#199 = EDGE_CURVE ( 'NONE', #289, #36, #136, .T. ) ;
#200 = AXIS2_PLACEMENT_3D ( 'NONE', #139, #181, #138 ) ;
#201 = CARTESIAN_POINT ( 'NONE',  ( -25.00000000000001421, -12.50000000000000000, 99.99999999999998579 ) ) ;
#202 = CARTESIAN_POINT ( 'NONE',  ( 50.00000000000000000, 12.50000000000000000, 100.0000000000000000 ) ) ;
#203 = EDGE_LOOP ( 'NONE', ( #264, #211, #90, #164 ) ) ;
#204 = AXIS2_PLACEMENT_3D ( 'NONE', #246, #42, #130 ) ;
#205 = PLANE ( 'NONE',  #144 ) ;
#206 = PLANE ( 'NONE',  #235 ) ;
#207 = CARTESIAN_POINT ( 'NONE',  ( -50.00000000000000000, 12.50000000000000000, 100.0000000000000000 ) ) ;
#208 = VERTEX_POINT ( 'NONE', #49 ) ;
#209 = FACE_OUTER_BOUND ( 'NONE', #105, .T. ) ;
#210 = EDGE_CURVE ( 'NONE', #124, #149, #8, .T. ) ;
#211 = ORIENTED_EDGE ( 'NONE', *, *, #210, .F. ) ;
#212 = CARTESIAN_POINT ( 'NONE',  ( 50.00000000000000000, -12.50000000000000000, 100.0000000000000000 ) ) ;
#213 = VERTEX_POINT ( 'NONE', #72 ) ;
#214 = ORIENTED_EDGE ( 'NONE', *, *, #273, .F. ) ;
#215 = ORIENTED_EDGE ( 'NONE', *, *, #216, .T. ) ;
#216 = EDGE_CURVE ( 'NONE', #213, #234, #123, .T. ) ;
#217 = PLANE ( 'NONE',  #170 ) ;
#218 = DIRECTION ( 'NONE',  ( 1.000000000000000000, 0.000000000000000000, 5.551115123125785660E-16 ) ) ;
#219 = LINE ( 'NONE', #3, #291 ) ;
#220 = FILL_AREA_STYLE_COLOUR ( '', #62 ) ;
#221 =( GEOMETRIC_REPRESENTATION_CONTEXT ( 3 ) GLOBAL_UNCERTAINTY_ASSIGNED_CONTEXT ( ( #44 ) ) GLOBAL_UNIT_ASSIGNED_CONTEXT ( ( #43, #269, #58 ) ) REPRESENTATION_CONTEXT ( 'NONE', 'WORKASPACE' ) );
#222 = CARTESIAN_POINT ( 'NONE',  ( -25.00000000000000000, 12.50000000000000000, 0.000000000000000000 ) ) ;
#223 = COLOUR_RGB ( '',0.7529411764705882248, 0.7529411764705882248, 0.7529411764705882248 ) ;
#224 = FACE_OUTER_BOUND ( 'NONE', #293, .T. ) ;
#225 = PLANE ( 'NONE',  #45 ) ;
#226 = VERTEX_POINT ( 'NONE', #212 ) ;
#227 = DIRECTION ( 'NONE',  ( 0.000000000000000000, 1.000000000000000000, -0.000000000000000000 ) ) ;
#228 = MECHANICAL_DESIGN_GEOMETRIC_PRESENTATION_REPRESENTATION (  '', ( #4 ), #250 ) ;
#229 = CARTESIAN_POINT ( 'NONE',  ( 0.000000000000000000, -12.50000000000000000, 200.0000000000000000 ) ) ;
#230 = CARTESIAN_POINT ( 'NONE',  ( 25.00000000000000000, -12.50000000000000000, 0.000000000000000000 ) ) ;
#231 = ORIENTED_EDGE ( 'NONE', *, *, #24, .T. ) ;
#232 = ADVANCED_FACE ( 'NONE', ( #260 ), #206, .F. ) ;
#233 = DIRECTION ( 'NONE',  ( -1.387778780781445922E-16, 0.000000000000000000, 1.000000000000000000 ) ) ;
#234 = VERTEX_POINT ( 'NONE', #11 ) ;
#235 = AXIS2_PLACEMENT_3D ( 'NONE', #141, #96, #233 ) ;
#236 = CARTESIAN_POINT ( 'NONE',  ( -25.00000000000000000, -12.50000000000000000, 0.000000000000000000 ) ) ;
#237 = FILL_AREA_STYLE ('',( #140 ) ) ;
#238 = ORIENTED_EDGE ( 'NONE', *, *, #273, .T. ) ;
#239 = PRODUCT_CONTEXT ( 'NONE', #64, 'mechanical' ) ;
#240 = EDGE_CURVE ( 'NONE', #234, #192, #29, .T. ) ;
#241 = EDGE_LOOP ( 'NONE', ( #33, #166, #178, #294 ) ) ;
#242 = VECTOR ( 'NONE', #69, 1000.000000000000000 ) ;
#243 = SHAPE_DEFINITION_REPRESENTATION ( #255, #278 ) ;
#244 = CARTESIAN_POINT ( 'NONE',  ( 25.00000000000001421, -12.50000000000000000, 99.99999999999998579 ) ) ;
#245 = CARTESIAN_POINT ( 'NONE',  ( 0.000000000000000000, 12.50000000000000000, 200.0000000000000000 ) ) ;
#246 = CARTESIAN_POINT ( 'NONE',  ( 0.000000000000000000, -12.50000000000000000, 200.0000000000000000 ) ) ;
#247 = EDGE_CURVE ( 'NONE', #36, #208, #263, .T. ) ;
#248 = FACE_OUTER_BOUND ( 'NONE', #193, .T. ) ;
#249 = UNCERTAINTY_MEASURE_WITH_UNIT (LENGTH_MEASURE( 1.000000000000000082E-05 ), #151, 'distance_accuracy_value', 'NONE');
#250 =( GEOMETRIC_REPRESENTATION_CONTEXT ( 3 ) GLOBAL_UNCERTAINTY_ASSIGNED_CONTEXT ( ( #249 ) ) GLOBAL_UNIT_ASSIGNED_CONTEXT ( ( #151, #135, #22 ) ) REPRESENTATION_CONTEXT ( 'NONE', 'WORKASPACE' ) );
#251 = APPLICATION_CONTEXT ( 'automotive_design' ) ;
#252 = DIRECTION ( 'NONE',  ( 1.000000000000000000, 0.000000000000000000, -5.551115123125785660E-16 ) ) ;
#253 = VECTOR ( 'NONE', #68, 1000.000000000000000 ) ;
#254 = LINE ( 'NONE', #47, #276 ) ;
#255 = PRODUCT_DEFINITION_SHAPE ( 'NONE', 'NONE',  #54 ) ;
#256 = VERTEX_POINT ( 'NONE', #116 ) ;
#257 = ADVANCED_FACE ( 'NONE', ( #13 ), #286, .T. ) ;
#258 = DIRECTION ( 'NONE',  ( -1.000000000000000000, 0.000000000000000000, 5.551115123125786646E-16 ) ) ;
#259 = LINE ( 'NONE', #230, #113 ) ;
#260 = FACE_OUTER_BOUND ( 'NONE', #241, .T. ) ;
#261 = DIRECTION ( 'NONE',  ( 0.000000000000000000, 1.000000000000000000, -0.000000000000000000 ) ) ;
#262 = PRESENTATION_STYLE_ASSIGNMENT (( #287 ) ) ;
#263 = LINE ( 'NONE', #118, #9 ) ;
#264 = ORIENTED_EDGE ( 'NONE', *, *, #35, .T. ) ;
#265 = APPLICATION_PROTOCOL_DEFINITION ( 'draft international standard', 'automotive_design', 1998, #251 ) ;
#266 = ORIENTED_EDGE ( 'NONE', *, *, #155, .F. ) ;
#267 = SURFACE_STYLE_FILL_AREA ( #107 ) ;
#268 = ORIENTED_EDGE ( 'NONE', *, *, #180, .F. ) ;
#269 =( NAMED_UNIT ( * ) PLANE_ANGLE_UNIT ( ) SI_UNIT ( $, .RADIAN. ) );
#270 = ORIENTED_EDGE ( 'NONE', *, *, #24, .F. ) ;
#271 = PRESENTATION_LAYER_ASSIGNMENT (  '', '', ( #285 ) ) ;
#272 = DIRECTION ( 'NONE',  ( -5.551115123125786646E-16, 0.000000000000000000, 1.000000000000000000 ) ) ;
#273 = EDGE_CURVE ( 'NONE', #38, #125, #198, .T. ) ;
#274 = CARTESIAN_POINT ( 'NONE',  ( 25.00000000000001421, -12.50000000000000000, 99.99999999999998579 ) ) ;
#275 = FACE_OUTER_BOUND ( 'NONE', #145, .T. ) ;
#276 = VECTOR ( 'NONE', #89, 1000.000000000000114 ) ;
#277 = EDGE_CURVE ( 'NONE', #289, #256, #31, .T. ) ;
#278 = ADVANCED_BREP_SHAPE_REPRESENTATION ( 'Up 01_PART', ( #1, #91 ), #221 ) ;
#279 = DIRECTION ( 'NONE',  ( 1.387778780781445922E-16, 0.000000000000000000, -1.000000000000000000 ) ) ;
#280 = ORIENTED_EDGE ( 'NONE', *, *, #131, .T. ) ;
#281 = EDGE_CURVE ( 'NONE', #208, #125, #283, .T. ) ;
#282 = DIRECTION ( 'NONE',  ( -1.000000000000000000, 0.000000000000000000, 0.000000000000000000 ) ) ;
#283 = LINE ( 'NONE', #71, #18 ) ;
#284 = DIRECTION ( 'NONE',  ( 1.387778780781445922E-16, 0.000000000000000000, 1.000000000000000000 ) ) ;
#285 = STYLED_ITEM ( 'NONE', ( #81 ), #278 ) ;
#286 = PLANE ( 'NONE',  #110 ) ;
#287 = SURFACE_STYLE_USAGE ( .BOTH. , #184 ) ;
#288 = DIRECTION ( 'NONE',  ( 0.000000000000000000, 1.000000000000000000, 0.000000000000000000 ) ) ;
#289 = VERTEX_POINT ( 'NONE', #120 ) ;
#290 = VERTEX_POINT ( 'NONE', #245 ) ;
#291 = VECTOR ( 'NONE', #279, 1000.000000000000000 ) ;
#292 = EDGE_CURVE ( 'NONE', #38, #226, #40, .T. ) ;
#293 = EDGE_LOOP ( 'NONE', ( #142, #187, #119, #238 ) ) ;
#294 = ORIENTED_EDGE ( 'NONE', *, *, #210, .T. ) ;
#295 = LINE ( 'NONE', #2, #299 ) ;
#296 = VECTOR ( 'NONE', #252, 1000.000000000000000 ) ;
#297 = CARTESIAN_POINT ( 'NONE',  ( 0.000000000000000000, -12.50000000000000000, 200.0000000000000000 ) ) ;
#298 = PRODUCT_RELATED_PRODUCT_CATEGORY ( 'part', '', ( #301 ) ) ;
#299 = VECTOR ( 'NONE', #176, 1000.000000000000000 ) ;
#300 = PRODUCT_DEFINITION_CONTEXT ( 'detailed design', #251, 'design' ) ;
#301 = PRODUCT ( 'Up 01_PART', 'Up 01_PART', '', ( #239 ) ) ;
ENDSEC;
END-ISO-10303-21;
