ISO-10303-21;
HEADER;
FILE_DESCRIPTION( ( 'STEP AP214' ), '1' );
FILE_NAME( 'p:/temp/worker_286/temp/exporttempdir_4372_180_uyLlD/format_0/BN 48739 3465563 slot flat head countersunk machine screw 0.25x0.75.stp', '2020-08-17T01:52:11', ( 'License CC BY-ND 4.0' ), ( 'CADENAS' ), ' ', 'PARTsolutions', ' ' );
FILE_SCHEMA( ( 'AUTOMOTIVE_DESIGN { 1 0 10303 214 1 1 1 1 }' ) );
ENDSEC;
DATA;
#1 = MECHANICAL_DESIGN_GEOMETRIC_PRESENTATION_REPRESENTATION( ' ', ( #10, #11, #12, #13, #14, #15, #16, #17, #18, #19, #20 ), #6 );
#2 = PRODUCT_DEFINITION_CONTEXT( '', #21, 'design' );
#3 = APPLICATION_PROTOCOL_DEFINITION( 'international standard', 'automotive_design', 2001, #21 );
#4 = PRODUCT_CATEGORY_RELATIONSHIP( 'NONE', 'NONE', #22, #23 );
#5 = SHAPE_DEFINITION_REPRESENTATION( #24, #25 );
#6 =  ( GEOMETRIC_REPRESENTATION_CONTEXT( 3 )GLOBAL_UNCERTAINTY_ASSIGNED_CONTEXT( ( #28 ) )GLOBAL_UNIT_ASSIGNED_CONTEXT( ( #30, #31, #32 ) )REPRESENTATION_CONTEXT( 'NONE', 'WORKSPACE' ) );
#10 = STYLED_ITEM( '', ( #34 ), #35 );
#11 = STYLED_ITEM( '', ( #36 ), #37 );
#12 = STYLED_ITEM( '', ( #38 ), #39 );
#13 = STYLED_ITEM( '', ( #40 ), #41 );
#14 = STYLED_ITEM( '', ( #42 ), #43 );
#15 = STYLED_ITEM( '', ( #44 ), #45 );
#16 = STYLED_ITEM( '', ( #46 ), #47 );
#17 = STYLED_ITEM( '', ( #48 ), #49 );
#18 = STYLED_ITEM( '', ( #50 ), #51 );
#19 = STYLED_ITEM( '', ( #52 ), #53 );
#20 = STYLED_ITEM( '', ( #54 ), #55 );
#21 = APPLICATION_CONTEXT( 'core data for automotive mechanical design processes' );
#22 = PRODUCT_CATEGORY( 'part', 'NONE' );
#23 = PRODUCT_RELATED_PRODUCT_CATEGORY( 'detail', ' ', ( #56 ) );
#24 = PRODUCT_DEFINITION_SHAPE( 'NONE', 'NONE', #57 );
#25 = ADVANCED_BREP_SHAPE_REPRESENTATION( '_BN 48739 3465563 slot flat head countersunk machine screw 0.25x0.75', ( #58, #59 ), #6 );
#28 = UNCERTAINTY_MEASURE_WITH_UNIT( LENGTH_MEASURE( 3.93701000000000E-05 ), #30, '', '' );
#30 =  ( CONVERSION_BASED_UNIT( 'INCH', #62 )LENGTH_UNIT(  )NAMED_UNIT( #65 ) );
#31 =  ( NAMED_UNIT( #67 )PLANE_ANGLE_UNIT(  )SI_UNIT( $, .RADIAN. ) );
#32 =  ( NAMED_UNIT( #67 )SI_UNIT( $, .STERADIAN. )SOLID_ANGLE_UNIT(  ) );
#34 = PRESENTATION_STYLE_ASSIGNMENT( ( #73 ) );
#35 = ADVANCED_FACE( '', ( #74 ), #75, .T. );
#36 = PRESENTATION_STYLE_ASSIGNMENT( ( #76 ) );
#37 = ADVANCED_FACE( '', ( #77 ), #78, .T. );
#38 = PRESENTATION_STYLE_ASSIGNMENT( ( #79 ) );
#39 = ADVANCED_FACE( '', ( #80 ), #81, .T. );
#40 = PRESENTATION_STYLE_ASSIGNMENT( ( #82 ) );
#41 = ADVANCED_FACE( '', ( #83, #84 ), #85, .T. );
#42 = PRESENTATION_STYLE_ASSIGNMENT( ( #86 ) );
#43 = ADVANCED_FACE( '', ( #87 ), #88, .F. );
#44 = PRESENTATION_STYLE_ASSIGNMENT( ( #89 ) );
#45 = ADVANCED_FACE( '', ( #90 ), #91, .F. );
#46 = PRESENTATION_STYLE_ASSIGNMENT( ( #92 ) );
#47 = ADVANCED_FACE( '', ( #93, #94 ), #95, .T. );
#48 = PRESENTATION_STYLE_ASSIGNMENT( ( #96 ) );
#49 = ADVANCED_FACE( '', ( #97 ), #98, .T. );
#50 = PRESENTATION_STYLE_ASSIGNMENT( ( #99 ) );
#51 = ADVANCED_FACE( '', ( #100 ), #101, .F. );
#52 = PRESENTATION_STYLE_ASSIGNMENT( ( #102 ) );
#53 = ADVANCED_FACE( '', ( #103 ), #104, .F. );
#54 = PRESENTATION_STYLE_ASSIGNMENT( ( #105 ) );
#55 = ADVANCED_FACE( '', ( #106, #107 ), #108, .T. );
#56 = PRODUCT( '_BN 48739 3465563 slot flat head countersunk machine screw 0.25x0.75', '_BN 48739 3465563 slot flat head countersunk machine screw 0.25x0.75', 'PART-_BN 48739 3465563 slot flat head countersunk machine screw 0.25x0.75-DESC', ( #109 ) );
#57 = PRODUCT_DEFINITION( 'NONE', 'NONE', #110, #2 );
#58 = MANIFOLD_SOLID_BREP( '_BN 48739 3465563 slot flat head countersunk machine screw 0.25x0.75', #111 );
#59 = AXIS2_PLACEMENT_3D( '', #112, #113, #114 );
#62 = LENGTH_MEASURE_WITH_UNIT( LENGTH_MEASURE( 25.4000000000000 ), #115 );
#65 = DIMENSIONAL_EXPONENTS( 1.00000000000000, 0.000000000000000, 0.000000000000000, 0.000000000000000, 0.000000000000000, 0.000000000000000, 0.000000000000000 );
#67 = DIMENSIONAL_EXPONENTS( 0.000000000000000, 0.000000000000000, 0.000000000000000, 0.000000000000000, 0.000000000000000, 0.000000000000000, 0.000000000000000 );
#73 = SURFACE_STYLE_USAGE( .BOTH., #116 );
#74 = FACE_OUTER_BOUND( '', #117, .T. );
#75 = CYLINDRICAL_SURFACE( '', #118, 0.229750000000000 );
#76 = SURFACE_STYLE_USAGE( .BOTH., #119 );
#77 = FACE_OUTER_BOUND( '', #120, .T. );
#78 = CYLINDRICAL_SURFACE( '', #121, 0.229750000000000 );
#79 = SURFACE_STYLE_USAGE( .BOTH., #122 );
#80 = FACE_OUTER_BOUND( '', #123, .T. );
#81 = PLANE( '', #124 );
#82 = SURFACE_STYLE_USAGE( .BOTH., #125 );
#83 = FACE_BOUND( '', #126, .T. );
#84 = FACE_OUTER_BOUND( '', #127, .T. );
#85 = CONICAL_SURFACE( '', #128, 0.229750000000000, 0.706858347100000 );
#86 = SURFACE_STYLE_USAGE( .BOTH., #129 );
#87 = FACE_OUTER_BOUND( '', #130, .T. );
#88 = PLANE( '', #131 );
#89 = SURFACE_STYLE_USAGE( .BOTH., #132 );
#90 = FACE_OUTER_BOUND( '', #133, .T. );
#91 = PLANE( '', #134 );
#92 = SURFACE_STYLE_USAGE( .BOTH., #135 );
#93 = FACE_BOUND( '', #136, .T. );
#94 = FACE_OUTER_BOUND( '', #137, .T. );
#95 = CONICAL_SURFACE( '', #138, 0.125000000000000, 0.785398163400000 );
#96 = SURFACE_STYLE_USAGE( .BOTH., #139 );
#97 = FACE_OUTER_BOUND( '', #140, .T. );
#98 = PLANE( '', #141 );
#99 = SURFACE_STYLE_USAGE( .BOTH., #142 );
#100 = FACE_OUTER_BOUND( '', #143, .T. );
#101 = PLANE( '', #144 );
#102 = SURFACE_STYLE_USAGE( .BOTH., #145 );
#103 = FACE_OUTER_BOUND( '', #146, .T. );
#104 = PLANE( '', #147 );
#105 = SURFACE_STYLE_USAGE( .BOTH., #148 );
#106 = FACE_OUTER_BOUND( '', #149, .T. );
#107 = FACE_OUTER_BOUND( '', #150, .T. );
#108 = CYLINDRICAL_SURFACE( '', #151, 0.125000000000000 );
#109 = PRODUCT_CONTEXT( '', #21, 'mechanical' );
#110 = PRODUCT_DEFINITION_FORMATION_WITH_SPECIFIED_SOURCE( ' ', 'NONE', #56, .NOT_KNOWN. );
#111 = CLOSED_SHELL( '', ( #49, #39, #53, #47, #55, #41, #51, #35, #43, #37, #45 ) );
#112 = CARTESIAN_POINT( '', ( 0.000000000000000, 0.000000000000000, 0.000000000000000 ) );
#113 = DIRECTION( '', ( 0.000000000000000, 0.000000000000000, 1.00000000000000 ) );
#114 = DIRECTION( '', ( 1.00000000000000, 0.000000000000000, 0.000000000000000 ) );
#115 =  ( LENGTH_UNIT(  )NAMED_UNIT( #65 )SI_UNIT( .MILLI., .METRE. ) );
#116 = SURFACE_SIDE_STYLE( '', ( #153 ) );
#117 = EDGE_LOOP( '', ( #154, #155, #156, #157 ) );
#118 = AXIS2_PLACEMENT_3D( '', #158, #159, #160 );
#119 = SURFACE_SIDE_STYLE( '', ( #161 ) );
#120 = EDGE_LOOP( '', ( #162, #163, #164, #165 ) );
#121 = AXIS2_PLACEMENT_3D( '', #166, #167, #168 );
#122 = SURFACE_SIDE_STYLE( '', ( #169 ) );
#123 = EDGE_LOOP( '', ( #170, #171, #172, #173 ) );
#124 = AXIS2_PLACEMENT_3D( '', #174, #175, #176 );
#125 = SURFACE_SIDE_STYLE( '', ( #177 ) );
#126 = EDGE_LOOP( '', ( #178 ) );
#127 = EDGE_LOOP( '', ( #179, #180, #181, #182, #183, #184, #185, #186 ) );
#128 = AXIS2_PLACEMENT_3D( '', #187, #188, #189 );
#129 = SURFACE_SIDE_STYLE( '', ( #190 ) );
#130 = EDGE_LOOP( '', ( #191, #192 ) );
#131 = AXIS2_PLACEMENT_3D( '', #193, #194, #195 );
#132 = SURFACE_SIDE_STYLE( '', ( #196 ) );
#133 = EDGE_LOOP( '', ( #197, #198, #199, #200, #201, #202 ) );
#134 = AXIS2_PLACEMENT_3D( '', #203, #204, #205 );
#135 = SURFACE_SIDE_STYLE( '', ( #206 ) );
#136 = EDGE_LOOP( '', ( #207 ) );
#137 = EDGE_LOOP( '', ( #208 ) );
#138 = AXIS2_PLACEMENT_3D( '', #209, #210, #211 );
#139 = SURFACE_SIDE_STYLE( '', ( #212 ) );
#140 = EDGE_LOOP( '', ( #213, #214, #215, #216, #217, #218 ) );
#141 = AXIS2_PLACEMENT_3D( '', #219, #220, #221 );
#142 = SURFACE_SIDE_STYLE( '', ( #222 ) );
#143 = EDGE_LOOP( '', ( #223, #224 ) );
#144 = AXIS2_PLACEMENT_3D( '', #225, #226, #227 );
#145 = SURFACE_SIDE_STYLE( '', ( #228 ) );
#146 = EDGE_LOOP( '', ( #229 ) );
#147 = AXIS2_PLACEMENT_3D( '', #230, #231, #232 );
#148 = SURFACE_SIDE_STYLE( '', ( #233 ) );
#149 = EDGE_LOOP( '', ( #234 ) );
#150 = EDGE_LOOP( '', ( #235 ) );
#151 = AXIS2_PLACEMENT_3D( '', #236, #237, #238 );
#153 = SURFACE_STYLE_FILL_AREA( #239 );
#154 = ORIENTED_EDGE( '', *, *, #240, .F. );
#155 = ORIENTED_EDGE( '', *, *, #241, .T. );
#156 = ORIENTED_EDGE( '', *, *, #242, .F. );
#157 = ORIENTED_EDGE( '', *, *, #243, .F. );
#158 = CARTESIAN_POINT( '', ( 0.000000000000000, 0.000000000000000, -0.750000000000000 ) );
#159 = DIRECTION( '', ( 0.000000000000000, -0.000000000000000, 1.00000000000000 ) );
#160 = DIRECTION( '', ( -1.00000000000000, 0.000000000000000, 0.000000000000000 ) );
#161 = SURFACE_STYLE_FILL_AREA( #244 );
#162 = ORIENTED_EDGE( '', *, *, #245, .F. );
#163 = ORIENTED_EDGE( '', *, *, #246, .T. );
#164 = ORIENTED_EDGE( '', *, *, #247, .T. );
#165 = ORIENTED_EDGE( '', *, *, #248, .T. );
#166 = CARTESIAN_POINT( '', ( 0.000000000000000, 0.000000000000000, -0.750000000000000 ) );
#167 = DIRECTION( '', ( 0.000000000000000, -0.000000000000000, 1.00000000000000 ) );
#168 = DIRECTION( '', ( -1.00000000000000, 0.000000000000000, 0.000000000000000 ) );
#169 = SURFACE_STYLE_FILL_AREA( #249 );
#170 = ORIENTED_EDGE( '', *, *, #250, .T. );
#171 = ORIENTED_EDGE( '', *, *, #251, .F. );
#172 = ORIENTED_EDGE( '', *, *, #252, .T. );
#173 = ORIENTED_EDGE( '', *, *, #253, .T. );
#174 = CARTESIAN_POINT( '', ( 0.229750000000000, 0.0347500000000000, -0.0580000000000000 ) );
#175 = DIRECTION( '', ( 0.000000000000000, -0.000000000000000, 1.00000000000000 ) );
#176 = DIRECTION( '', ( 1.00000000000000, 0.000000000000000, -0.000000000000000 ) );
#177 = SURFACE_STYLE_FILL_AREA( #254 );
#178 = ORIENTED_EDGE( '', *, *, #255, .F. );
#179 = ORIENTED_EDGE( '', *, *, #245, .T. );
#180 = ORIENTED_EDGE( '', *, *, #256, .T. );
#181 = ORIENTED_EDGE( '', *, *, #252, .F. );
#182 = ORIENTED_EDGE( '', *, *, #257, .F. );
#183 = ORIENTED_EDGE( '', *, *, #243, .T. );
#184 = ORIENTED_EDGE( '', *, *, #258, .F. );
#185 = ORIENTED_EDGE( '', *, *, #250, .F. );
#186 = ORIENTED_EDGE( '', *, *, #259, .T. );
#187 = CARTESIAN_POINT( '', ( 0.000000000000000, 0.000000000000000, -0.0303535079497124 ) );
#188 = DIRECTION( '', ( 0.000000000000000, -0.000000000000000, 1.00000000000000 ) );
#189 = DIRECTION( '', ( 1.00000000000000, 0.000000000000000, -0.000000000000000 ) );
#190 = SURFACE_STYLE_FILL_AREA( #260 );
#191 = ORIENTED_EDGE( '', *, *, #247, .F. );
#192 = ORIENTED_EDGE( '', *, *, #261, .T. );
#193 = CARTESIAN_POINT( '', ( 0.000000000000000, 0.000000000000000, 0.000000000000000 ) );
#194 = DIRECTION( '', ( -0.000000000000000, 0.000000000000000, -1.00000000000000 ) );
#195 = DIRECTION( '', ( -1.00000000000000, 0.000000000000000, 0.000000000000000 ) );
#196 = SURFACE_STYLE_FILL_AREA( #262 );
#197 = ORIENTED_EDGE( '', *, *, #261, .F. );
#198 = ORIENTED_EDGE( '', *, *, #246, .F. );
#199 = ORIENTED_EDGE( '', *, *, #259, .F. );
#200 = ORIENTED_EDGE( '', *, *, #253, .F. );
#201 = ORIENTED_EDGE( '', *, *, #256, .F. );
#202 = ORIENTED_EDGE( '', *, *, #248, .F. );
#203 = CARTESIAN_POINT( '', ( 0.000000000000000, 0.0347500000000000, 0.000000000000000 ) );
#204 = DIRECTION( '', ( 0.000000000000000, 1.00000000000000, -0.000000000000000 ) );
#205 = DIRECTION( '', ( 0.000000000000000, 0.000000000000000, 1.00000000000000 ) );
#206 = SURFACE_STYLE_FILL_AREA( #263 );
#207 = ORIENTED_EDGE( '', *, *, #264, .F. );
#208 = ORIENTED_EDGE( '', *, *, #265, .T. );
#209 = CARTESIAN_POINT( '', ( 0.000000000000000, 0.000000000000000, -0.720250000000000 ) );
#210 = DIRECTION( '', ( 0.000000000000000, -0.000000000000000, 1.00000000000000 ) );
#211 = DIRECTION( '', ( 1.00000000000000, 0.000000000000000, -0.000000000000000 ) );
#212 = SURFACE_STYLE_FILL_AREA( #266 );
#213 = ORIENTED_EDGE( '', *, *, #240, .T. );
#214 = ORIENTED_EDGE( '', *, *, #257, .T. );
#215 = ORIENTED_EDGE( '', *, *, #251, .T. );
#216 = ORIENTED_EDGE( '', *, *, #258, .T. );
#217 = ORIENTED_EDGE( '', *, *, #242, .T. );
#218 = ORIENTED_EDGE( '', *, *, #267, .T. );
#219 = CARTESIAN_POINT( '', ( 0.000000000000000, -0.0347500000000000, -0.000000000000000 ) );
#220 = DIRECTION( '', ( 0.000000000000000, 1.00000000000000, -0.000000000000000 ) );
#221 = DIRECTION( '', ( 0.000000000000000, 0.000000000000000, 1.00000000000000 ) );
#222 = SURFACE_STYLE_FILL_AREA( #268 );
#223 = ORIENTED_EDGE( '', *, *, #267, .F. );
#224 = ORIENTED_EDGE( '', *, *, #241, .F. );
#225 = CARTESIAN_POINT( '', ( 0.000000000000000, 0.000000000000000, 0.000000000000000 ) );
#226 = DIRECTION( '', ( -0.000000000000000, 0.000000000000000, -1.00000000000000 ) );
#227 = DIRECTION( '', ( -1.00000000000000, 0.000000000000000, 0.000000000000000 ) );
#228 = SURFACE_STYLE_FILL_AREA( #269 );
#229 = ORIENTED_EDGE( '', *, *, #264, .T. );
#230 = CARTESIAN_POINT( '', ( 0.000000000000000, 0.0952500000000000, -0.750000000000000 ) );
#231 = DIRECTION( '', ( 0.000000000000000, 0.000000000000000, 1.00000000000000 ) );
#232 = DIRECTION( '', ( 1.00000000000000, 0.000000000000000, -0.000000000000000 ) );
#233 = SURFACE_STYLE_FILL_AREA( #270 );
#234 = ORIENTED_EDGE( '', *, *, #265, .F. );
#235 = ORIENTED_EDGE( '', *, *, #255, .T. );
#236 = CARTESIAN_POINT( '', ( 0.000000000000000, 0.000000000000000, -0.750000000000000 ) );
#237 = DIRECTION( '', ( 0.000000000000000, -0.000000000000000, 1.00000000000000 ) );
#238 = DIRECTION( '', ( -1.00000000000000, 0.000000000000000, 0.000000000000000 ) );
#239 = FILL_AREA_STYLE( '', ( #271 ) );
#240 = EDGE_CURVE( '', #272, #273, #274, .T. );
#241 = EDGE_CURVE( '', #272, #275, #276, .T. );
#242 = EDGE_CURVE( '', #277, #275, #278, .F. );
#243 = EDGE_CURVE( '', #273, #277, #279, .T. );
#244 = FILL_AREA_STYLE( '', ( #280 ) );
#245 = EDGE_CURVE( '', #281, #282, #283, .T. );
#246 = EDGE_CURVE( '', #281, #284, #285, .F. );
#247 = EDGE_CURVE( '', #284, #286, #287, .T. );
#248 = EDGE_CURVE( '', #286, #282, #288, .T. );
#249 = FILL_AREA_STYLE( '', ( #289 ) );
#250 = EDGE_CURVE( '', #290, #291, #292, .T. );
#251 = EDGE_CURVE( '', #293, #291, #294, .T. );
#252 = EDGE_CURVE( '', #293, #295, #296, .T. );
#253 = EDGE_CURVE( '', #295, #290, #297, .T. );
#254 = FILL_AREA_STYLE( '', ( #298 ) );
#255 = EDGE_CURVE( '', #299, #299, #300, .T. );
#256 = EDGE_CURVE( '', #282, #295, #301, .T. );
#257 = EDGE_CURVE( '', #273, #293, #302, .T. );
#258 = EDGE_CURVE( '', #291, #277, #303, .T. );
#259 = EDGE_CURVE( '', #290, #281, #304, .T. );
#260 = FILL_AREA_STYLE( '', ( #305 ) );
#261 = EDGE_CURVE( '', #284, #286, #306, .T. );
#262 = FILL_AREA_STYLE( '', ( #307 ) );
#263 = FILL_AREA_STYLE( '', ( #308 ) );
#264 = EDGE_CURVE( '', #309, #309, #310, .T. );
#265 = EDGE_CURVE( '', #311, #311, #312, .T. );
#266 = FILL_AREA_STYLE( '', ( #313 ) );
#267 = EDGE_CURVE( '', #275, #272, #314, .T. );
#268 = FILL_AREA_STYLE( '', ( #315 ) );
#269 = FILL_AREA_STYLE( '', ( #316 ) );
#270 = FILL_AREA_STYLE( '', ( #317 ) );
#271 = FILL_AREA_STYLE_COLOUR( '', #318 );
#272 = VERTEX_POINT( '', #319 );
#273 = VERTEX_POINT( '', #320 );
#274 = LINE( '', #321, #322 );
#275 = VERTEX_POINT( '', #323 );
#276 = CIRCLE( '', #324, 0.229750000000000 );
#277 = VERTEX_POINT( '', #325 );
#278 = LINE( '', #326, #327 );
#279 = CIRCLE( '', #328, 0.229750000000000 );
#280 = FILL_AREA_STYLE_COLOUR( '', #329 );
#281 = VERTEX_POINT( '', #330 );
#282 = VERTEX_POINT( '', #331 );
#283 = CIRCLE( '', #332, 0.229750000000000 );
#284 = VERTEX_POINT( '', #333 );
#285 = LINE( '', #334, #335 );
#286 = VERTEX_POINT( '', #336 );
#287 = CIRCLE( '', #337, 0.229750000000000 );
#288 = LINE( '', #338, #339 );
#289 = FILL_AREA_STYLE_COLOUR( '', #340 );
#290 = VERTEX_POINT( '', #341 );
#291 = VERTEX_POINT( '', #342 );
#292 = CIRCLE( '', #343, 0.206137665100000 );
#293 = VERTEX_POINT( '', #344 );
#294 = LINE( '', #345, #346 );
#295 = VERTEX_POINT( '', #347 );
#296 = CIRCLE( '', #348, 0.206137665100000 );
#297 = LINE( '', #349, #350 );
#298 = FILL_AREA_STYLE_COLOUR( '', #351 );
#299 = VERTEX_POINT( '', #352 );
#300 = CIRCLE( '', #353, 0.125000000000000 );
#301 = B_SPLINE_CURVE_WITH_KNOTS( '', 3, ( #354, #355, #356, #357 ), .UNSPECIFIED., .F., .F., ( 4, 4 ), ( 0.00924833628283896, 0.0101768999271037 ), .UNSPECIFIED. );
#302 = B_SPLINE_CURVE_WITH_KNOTS( '', 3, ( #358, #359, #360, #361 ), .UNSPECIFIED., .F., .F., ( 4, 4 ), ( 0.00924833628283896, 0.0101768999271037 ), .UNSPECIFIED. );
#303 = B_SPLINE_CURVE_WITH_KNOTS( '', 3, ( #362, #363, #364, #365 ), .UNSPECIFIED., .F., .F., ( 4, 4 ), ( 0.0248888278955807, 0.0258232480200025 ), .UNSPECIFIED. );
#304 = B_SPLINE_CURVE_WITH_KNOTS( '', 3, ( #366, #367, #368, #369 ), .UNSPECIFIED., .F., .F., ( 4, 4 ), ( 0.0248888278955807, 0.0258232480200025 ), .UNSPECIFIED. );
#305 = FILL_AREA_STYLE_COLOUR( '', #370 );
#306 = LINE( '', #371, #372 );
#307 = FILL_AREA_STYLE_COLOUR( '', #373 );
#308 = FILL_AREA_STYLE_COLOUR( '', #374 );
#309 = VERTEX_POINT( '', #375 );
#310 = CIRCLE( '', #376, 0.0952500000000000 );
#311 = VERTEX_POINT( '', #377 );
#312 = CIRCLE( '', #378, 0.125000000000000 );
#313 = FILL_AREA_STYLE_COLOUR( '', #379 );
#314 = LINE( '', #380, #381 );
#315 = FILL_AREA_STYLE_COLOUR( '', #382 );
#316 = FILL_AREA_STYLE_COLOUR( '', #383 );
#317 = FILL_AREA_STYLE_COLOUR( '', #384 );
#318 = COLOUR_RGB( '', 0.980000019100000, 0.980000019100000, 0.980000019100000 );
#319 = CARTESIAN_POINT( '', ( 0.227106803068512, -0.0347500000000000, 0.000000000000000 ) );
#320 = CARTESIAN_POINT( '', ( 0.227106803068512, -0.0347500000000000, -0.0303535079497124 ) );
#321 = CARTESIAN_POINT( '', ( 0.227106803068512, -0.0347500000000000, -0.750000000000000 ) );
#322 = VECTOR( '', #385, 39.3700787402000 );
#323 = CARTESIAN_POINT( '', ( -0.227106803068512, -0.0347500000000000, 0.000000000000000 ) );
#324 = AXIS2_PLACEMENT_3D( '', #386, #387, #388 );
#325 = CARTESIAN_POINT( '', ( -0.227106803068512, -0.0347500000000000, -0.0303535079497124 ) );
#326 = CARTESIAN_POINT( '', ( -0.227106803068512, -0.0347500000000000, -0.750000000000000 ) );
#327 = VECTOR( '', #389, 39.3700787402000 );
#328 = AXIS2_PLACEMENT_3D( '', #390, #391, #392 );
#329 = COLOUR_RGB( '', 0.980000019100000, 0.980000019100000, 0.980000019100000 );
#330 = CARTESIAN_POINT( '', ( -0.227106803068512, 0.0347500000000000, -0.0303535079497124 ) );
#331 = CARTESIAN_POINT( '', ( 0.227106803068512, 0.0347500000000000, -0.0303535079497124 ) );
#332 = AXIS2_PLACEMENT_3D( '', #393, #394, #395 );
#333 = CARTESIAN_POINT( '', ( -0.227106803068512, 0.0347500000000000, 0.000000000000000 ) );
#334 = CARTESIAN_POINT( '', ( -0.227106803068512, 0.0347500000000000, -0.750000000000000 ) );
#335 = VECTOR( '', #396, 39.3700787402000 );
#336 = CARTESIAN_POINT( '', ( 0.227106803068512, 0.0347500000000000, 0.000000000000000 ) );
#337 = AXIS2_PLACEMENT_3D( '', #397, #398, #399 );
#338 = CARTESIAN_POINT( '', ( 0.227106803068512, 0.0347500000000000, -0.750000000000000 ) );
#339 = VECTOR( '', #400, 39.3700787402000 );
#340 = COLOUR_RGB( '', 0.980000019100000, 0.980000019100000, 0.980000019100000 );
#341 = CARTESIAN_POINT( '', ( -0.203187535249398, 0.0347500000000000, -0.0580000000000000 ) );
#342 = CARTESIAN_POINT( '', ( -0.203187535249398, -0.0347500000000000, -0.0580000000000000 ) );
#343 = AXIS2_PLACEMENT_3D( '', #401, #402, #403 );
#344 = CARTESIAN_POINT( '', ( 0.203187535249398, -0.0347500000000000, -0.0580000000000000 ) );
#345 = CARTESIAN_POINT( '', ( 0.229750000000000, -0.0347500000000000, -0.0580000000000000 ) );
#346 = VECTOR( '', #404, 39.3700787402000 );
#347 = CARTESIAN_POINT( '', ( 0.203187535249398, 0.0347500000000000, -0.0580000000000000 ) );
#348 = AXIS2_PLACEMENT_3D( '', #405, #406, #407 );
#349 = CARTESIAN_POINT( '', ( 0.229750000000000, 0.0347500000000000, -0.0580000000000000 ) );
#350 = VECTOR( '', #408, 39.3700787402000 );
#351 = COLOUR_RGB( '', 0.980000019100000, 0.980000019100000, 0.980000019100000 );
#352 = CARTESIAN_POINT( '', ( -0.125000000000000, 0.000000000000000, -0.153000000000000 ) );
#353 = AXIS2_PLACEMENT_3D( '', #409, #410, #411 );
#354 = CARTESIAN_POINT( '', ( 0.227106803068512, 0.0347500000000000, -0.0303535079497123 ) );
#355 = CARTESIAN_POINT( '', ( 0.219139839480701, 0.0347500000000000, -0.0395743069556859 ) );
#356 = CARTESIAN_POINT( '', ( 0.211167462992824, 0.0347500000000000, -0.0487904212068296 ) );
#357 = CARTESIAN_POINT( '', ( 0.203187535249398, 0.0347500000000000, -0.0580000000000000 ) );
#358 = CARTESIAN_POINT( '', ( 0.227106803068512, -0.0347500000000000, -0.0303535079497123 ) );
#359 = CARTESIAN_POINT( '', ( 0.219139839480701, -0.0347500000000000, -0.0395743069556860 ) );
#360 = CARTESIAN_POINT( '', ( 0.211167462992824, -0.0347500000000000, -0.0487904212068296 ) );
#361 = CARTESIAN_POINT( '', ( 0.203187535249398, -0.0347500000000000, -0.0580000000000000 ) );
#362 = CARTESIAN_POINT( '', ( -0.203187535249398, -0.0347500000000000, -0.0580000000000000 ) );
#363 = CARTESIAN_POINT( '', ( -0.211167482929527, -0.0347500000000000, -0.0487903981980191 ) );
#364 = CARTESIAN_POINT( '', ( -0.219139857310272, -0.0347500000000000, -0.0395742863201096 ) );
#365 = CARTESIAN_POINT( '', ( -0.227106803068512, -0.0347500000000000, -0.0303535079497124 ) );
#366 = CARTESIAN_POINT( '', ( -0.203187535249398, 0.0347500000000000, -0.0580000000000000 ) );
#367 = CARTESIAN_POINT( '', ( -0.211167482929527, 0.0347500000000000, -0.0487903981980191 ) );
#368 = CARTESIAN_POINT( '', ( -0.219139857310272, 0.0347500000000000, -0.0395742863201096 ) );
#369 = CARTESIAN_POINT( '', ( -0.227106803068512, 0.0347500000000000, -0.0303535079497124 ) );
#370 = COLOUR_RGB( '', 0.980000019100000, 0.980000019100000, 0.980000019100000 );
#371 = CARTESIAN_POINT( '', ( -0.229750000000000, 0.0347500000000000, 0.000000000000000 ) );
#372 = VECTOR( '', #412, 39.3700787402000 );
#373 = COLOUR_RGB( '', 0.980000019100000, 0.980000019100000, 0.980000019100000 );
#374 = COLOUR_RGB( '', 0.980000019100000, 0.980000019100000, 0.980000019100000 );
#375 = CARTESIAN_POINT( '', ( -0.0952500000000000, 0.000000000000000, -0.750000000000000 ) );
#376 = AXIS2_PLACEMENT_3D( '', #413, #414, #415 );
#377 = CARTESIAN_POINT( '', ( -0.125000000000000, 0.000000000000000, -0.720250000000000 ) );
#378 = AXIS2_PLACEMENT_3D( '', #416, #417, #418 );
#379 = COLOUR_RGB( '', 0.980000019100000, 0.980000019100000, 0.980000019100000 );
#380 = CARTESIAN_POINT( '', ( -0.229750000000000, -0.0347500000000000, 0.000000000000000 ) );
#381 = VECTOR( '', #419, 39.3700787402000 );
#382 = COLOUR_RGB( '', 0.980000019100000, 0.980000019100000, 0.980000019100000 );
#383 = COLOUR_RGB( '', 0.980000019100000, 0.980000019100000, 0.980000019100000 );
#384 = COLOUR_RGB( '', 0.980000019100000, 0.980000019100000, 0.980000019100000 );
#385 = DIRECTION( '', ( -0.000000000000000, -0.000000000000000, -1.00000000000000 ) );
#386 = CARTESIAN_POINT( '', ( 0.000000000000000, 0.000000000000000, 0.000000000000000 ) );
#387 = DIRECTION( '', ( -0.000000000000000, 0.000000000000000, -1.00000000000000 ) );
#388 = DIRECTION( '', ( -1.00000000000000, 0.000000000000000, 0.000000000000000 ) );
#389 = DIRECTION( '', ( -0.000000000000000, -0.000000000000000, -1.00000000000000 ) );
#390 = CARTESIAN_POINT( '', ( 0.000000000000000, 0.000000000000000, -0.0303535079497124 ) );
#391 = DIRECTION( '', ( -0.000000000000000, 0.000000000000000, -1.00000000000000 ) );
#392 = DIRECTION( '', ( -1.00000000000000, 0.000000000000000, 0.000000000000000 ) );
#393 = CARTESIAN_POINT( '', ( 0.000000000000000, 0.000000000000000, -0.0303535079497124 ) );
#394 = DIRECTION( '', ( -0.000000000000000, 0.000000000000000, -1.00000000000000 ) );
#395 = DIRECTION( '', ( -1.00000000000000, 0.000000000000000, 0.000000000000000 ) );
#396 = DIRECTION( '', ( -0.000000000000000, -0.000000000000000, -1.00000000000000 ) );
#397 = CARTESIAN_POINT( '', ( 0.000000000000000, 0.000000000000000, 0.000000000000000 ) );
#398 = DIRECTION( '', ( -0.000000000000000, 0.000000000000000, -1.00000000000000 ) );
#399 = DIRECTION( '', ( -1.00000000000000, 0.000000000000000, 0.000000000000000 ) );
#400 = DIRECTION( '', ( -0.000000000000000, -0.000000000000000, -1.00000000000000 ) );
#401 = CARTESIAN_POINT( '', ( 0.000000000000000, 0.000000000000000, -0.0580000000000000 ) );
#402 = DIRECTION( '', ( 0.000000000000000, -0.000000000000000, 1.00000000000000 ) );
#403 = DIRECTION( '', ( 1.00000000000000, 0.000000000000000, -0.000000000000000 ) );
#404 = DIRECTION( '', ( -1.00000000000000, 0.000000000000000, 0.000000000000000 ) );
#405 = CARTESIAN_POINT( '', ( 0.000000000000000, 0.000000000000000, -0.0580000000000000 ) );
#406 = DIRECTION( '', ( 0.000000000000000, -0.000000000000000, 1.00000000000000 ) );
#407 = DIRECTION( '', ( 1.00000000000000, 0.000000000000000, -0.000000000000000 ) );
#408 = DIRECTION( '', ( -1.00000000000000, 0.000000000000000, 0.000000000000000 ) );
#409 = CARTESIAN_POINT( '', ( 0.000000000000000, 0.000000000000000, -0.153000000000000 ) );
#410 = DIRECTION( '', ( -0.000000000000000, 0.000000000000000, -1.00000000000000 ) );
#411 = DIRECTION( '', ( -1.00000000000000, 0.000000000000000, 0.000000000000000 ) );
#412 = DIRECTION( '', ( 1.00000000000000, 0.000000000000000, 0.000000000000000 ) );
#413 = CARTESIAN_POINT( '', ( 0.000000000000000, 0.000000000000000, -0.750000000000000 ) );
#414 = DIRECTION( '', ( -0.000000000000000, 0.000000000000000, -1.00000000000000 ) );
#415 = DIRECTION( '', ( -1.00000000000000, 0.000000000000000, 0.000000000000000 ) );
#416 = CARTESIAN_POINT( '', ( 0.000000000000000, 0.000000000000000, -0.720250000000000 ) );
#417 = DIRECTION( '', ( -0.000000000000000, 0.000000000000000, -1.00000000000000 ) );
#418 = DIRECTION( '', ( -1.00000000000000, 0.000000000000000, 0.000000000000000 ) );
#419 = DIRECTION( '', ( 1.00000000000000, 0.000000000000000, 0.000000000000000 ) );
ENDSEC;
END-ISO-10303-21;
