0
SECTION
2
HEADER
9
$ACADVER
1
AC1006
9
$INSBASE
10
0.0
20
0.0
30
0.0
9
$INSUNITS
70
4
9
$EXTMIN
10
0.000
20
0.000
9
$EXTMAX
10
2133.560
20
370.740
0
ENDSEC
0
SECTION
2
TABLES
0
TABLE
2
LTYPE
70
1
0
LTYPE
2
CONTINUOUS
70
64
3
Solid line
72
65
73
0
40
0.000000
0
ENDTAB
0
TABLE
2
LAYER
70
7
0
LAYER
2
PIECE40
70
64
62
7
6
CONTINUOUS
0
LAYER
2
CONTOUR
70
64
62
7
6
CONTINUOUS
0
LAYER
2
PROFIL_LIMON
70
64
62
7
6
CONTINUOUS
0
LAYER
2
PROFIL_MINUS
70
64
62
7
6
CONTINUOUS
0
LAYER
2
ENTAILLE_MARCHE_15
70
64
62
7
6
CONTINUOUS
0
LAYER
2
ENTAILLE_CM_15
70
64
62
7
6
CONTINUOUS
0
ENDTAB
0
TABLE
2
STYLE
70
0
0
ENDTAB
0
ENDSEC
0
SECTION
2
BLOCKS
0
ENDSEC
0
SECTION
2
ENTITIES
0
POLYLINE
6
0
8
PIECE40
62
0
10
0
20
0
30
0.000
66
1
0
VERTEX
8
PIECE40
6
0
10
0.000
20
370.740
30
0
0
VERTEX
8
PIECE40
6
0
10
0.000
20
0.000
30
0
0
VERTEX
8
PIECE40
6
0
10
2133.560
20
0.000
30
0
0
VERTEX
8
PIECE40
6
0
10
2133.560
20
370.740
30
0
0
VERTEX
8
PIECE40
6
0
10
0.000
20
370.740
30
0
0
SEQEND
0
POLYLINE
6
0
8
CONTOUR
62
0
10
0
20
0
30
0.000
66
1
0
VERTEX
8
CONTOUR
6
0
10
0.000
20
89.300
30
0
0
VERTEX
8
CONTOUR
6
0
10
85.030
20
270.020
30
0
0
VERTEX
8
CONTOUR
6
0
10
434.850
20
309.190
30
0
0
VERTEX
8
CONTOUR
6
0
10
456.380
20
311.360
30
0
0
VERTEX
8
CONTOUR
6
0
10
477.910
20
313.480
30
0
0
VERTEX
8
CONTOUR
6
0
10
499.440
20
315.560
30
0
0
VERTEX
8
CONTOUR
6
0
10
520.980
20
317.600
30
0
0
VERTEX
8
CONTOUR
6
0
10
542.520
20
319.610
30
0
0
VERTEX
8
CONTOUR
6
0
10
564.070
20
321.590
30
0
0
VERTEX
8
CONTOUR
6
0
10
585.620
20
323.520
30
0
0
VERTEX
8
CONTOUR
6
0
10
607.170
20
325.430
30
0
0
VERTEX
8
CONTOUR
6
0
10
628.720
20
327.290
30
0
0
VERTEX
8
CONTOUR
6
0
10
650.280
20
329.130
30
0
0
VERTEX
8
CONTOUR
6
0
10
671.840
20
330.930
30
0
0
VERTEX
8
CONTOUR
6
0
10
693.400
20
332.690
30
0
0
VERTEX
8
CONTOUR
6
0
10
714.970
20
334.420
30
0
0
VERTEX
8
CONTOUR
6
0
10
736.540
20
336.110
30
0
0
VERTEX
8
CONTOUR
6
0
10
758.110
20
337.770
30
0
0
VERTEX
8
CONTOUR
6
0
10
779.680
20
339.400
30
0
0
VERTEX
8
CONTOUR
6
0
10
802.390
20
341.090
30
0
0
VERTEX
8
CONTOUR
6
0
10
825.090
20
342.750
30
0
0
VERTEX
8
CONTOUR
6
0
10
847.800
20
344.370
30
0
0
VERTEX
8
CONTOUR
6
0
10
870.510
20
345.950
30
0
0
VERTEX
8
CONTOUR
6
0
10
893.230
20
347.500
30
0
0
VERTEX
8
CONTOUR
6
0
10
915.950
20
348.990
30
0
0
VERTEX
8
CONTOUR
6
0
10
938.670
20
350.430
30
0
0
VERTEX
8
CONTOUR
6
0
10
961.390
20
351.810
30
0
0
VERTEX
8
CONTOUR
6
0
10
984.120
20
353.090
30
0
0
VERTEX
8
CONTOUR
6
0
10
1006.860
20
354.310
30
0
0
VERTEX
8
CONTOUR
6
0
10
1029.590
20
355.480
30
0
0
VERTEX
8
CONTOUR
6
0
10
1052.330
20
356.610
30
0
0
VERTEX
8
CONTOUR
6
0
10
1075.070
20
357.690
30
0
0
VERTEX
8
CONTOUR
6
0
10
1120.550
20
359.800
30
0
0
VERTEX
8
CONTOUR
6
0
10
1143.290
20
360.900
30
0
0
VERTEX
8
CONTOUR
6
0
10
1168.220
20
362.250
30
0
0
VERTEX
8
CONTOUR
6
0
10
1193.140
20
363.640
30
0
0
VERTEX
8
CONTOUR
6
0
10
1218.060
20
364.980
30
0
0
VERTEX
8
CONTOUR
6
0
10
1242.990
20
366.250
30
0
0
VERTEX
8
CONTOUR
6
0
10
1267.920
20
367.390
30
0
0
VERTEX
8
CONTOUR
6
0
10
1292.860
20
368.400
30
0
0
VERTEX
8
CONTOUR
6
0
10
1317.800
20
369.260
30
0
0
VERTEX
8
CONTOUR
6
0
10
1342.750
20
369.950
30
0
0
VERTEX
8
CONTOUR
6
0
10
1367.710
20
370.430
30
0
0
VERTEX
8
CONTOUR
6
0
10
1392.680
20
370.700
30
0
0
VERTEX
8
CONTOUR
6
0
10
1417.640
20
370.740
30
0
0
VERTEX
8
CONTOUR
6
0
10
1442.600
20
370.520
30
0
0
VERTEX
8
CONTOUR
6
0
10
1467.570
20
370.060
30
0
0
VERTEX
8
CONTOUR
6
0
10
1492.520
20
369.290
30
0
0
VERTEX
8
CONTOUR
6
0
10
1517.460
20
368.200
30
0
0
VERTEX
8
CONTOUR
6
0
10
1542.390
20
366.710
30
0
0
VERTEX
8
CONTOUR
6
0
10
1577.660
20
363.940
30
0
0
VERTEX
8
CONTOUR
6
0
10
1612.880
20
360.590
30
0
0
VERTEX
8
CONTOUR
6
0
10
1648.040
20
356.720
30
0
0
VERTEX
8
CONTOUR
6
0
10
1683.150
20
352.330
30
0
0
VERTEX
8
CONTOUR
6
0
10
1718.190
20
347.450
30
0
0
VERTEX
8
CONTOUR
6
0
10
1753.150
20
342.090
30
0
0
VERTEX
8
CONTOUR
6
0
10
1788.040
20
336.240
30
0
0
VERTEX
8
CONTOUR
6
0
10
1822.860
20
329.970
30
0
0
VERTEX
8
CONTOUR
6
0
10
1857.620
20
323.370
30
0
0
VERTEX
8
CONTOUR
6
0
10
1892.300
20
316.320
30
0
0
VERTEX
8
CONTOUR
6
0
10
1926.860
20
308.720
30
0
0
VERTEX
8
CONTOUR
6
0
10
1961.300
20
300.590
30
0
0
VERTEX
8
CONTOUR
6
0
10
1995.610
20
291.910
30
0
0
VERTEX
8
CONTOUR
6
0
10
2029.750
20
282.580
30
0
0
VERTEX
8
CONTOUR
6
0
10
2063.690
20
272.560
30
0
0
VERTEX
8
CONTOUR
6
0
10
2097.360
20
261.670
30
0
0
VERTEX
8
CONTOUR
6
0
10
2133.560
20
244.640
30
0
0
VERTEX
8
CONTOUR
6
0
10
2048.910
20
64.750
30
0
0
VERTEX
8
CONTOUR
6
0
10
2012.720
20
81.780
30
0
0
VERTEX
8
CONTOUR
6
0
10
1974.240
20
0.000
30
0
0
VERTEX
8
CONTOUR
6
0
10
1945.920
20
6.350
30
0
0
VERTEX
8
CONTOUR
6
0
10
1917.600
20
12.680
30
0
0
VERTEX
8
CONTOUR
6
0
10
1889.260
20
18.960
30
0
0
VERTEX
8
CONTOUR
6
0
10
1860.910
20
25.170
30
0
0
VERTEX
8
CONTOUR
6
0
10
1832.540
20
31.280
30
0
0
VERTEX
8
CONTOUR
6
0
10
1804.150
20
37.270
30
0
0
VERTEX
8
CONTOUR
6
0
10
1775.720
20
43.150
30
0
0
VERTEX
8
CONTOUR
6
0
10
1747.280
20
48.920
30
0
0
VERTEX
8
CONTOUR
6
0
10
1718.820
20
54.630
30
0
0
VERTEX
8
CONTOUR
6
0
10
1690.320
20
60.160
30
0
0
VERTEX
8
CONTOUR
6
0
10
1661.770
20
65.440
30
0
0
VERTEX
8
CONTOUR
6
0
10
1633.170
20
70.430
30
0
0
VERTEX
8
CONTOUR
6
0
10
1604.520
20
75.140
30
0
0
VERTEX
8
CONTOUR
6
0
10
1575.800
20
79.420
30
0
0
VERTEX
8
CONTOUR
6
0
10
1547.010
20
83.220
30
0
0
VERTEX
8
CONTOUR
6
0
10
1518.140
20
86.330
30
0
0
VERTEX
8
CONTOUR
6
0
10
1495.390
20
87.980
30
0
0
VERTEX
8
CONTOUR
6
0
10
1472.610
20
89.090
30
0
0
VERTEX
8
CONTOUR
6
0
10
1449.810
20
89.800
30
0
0
VERTEX
8
CONTOUR
6
0
10
1427.010
20
90.170
30
0
0
VERTEX
8
CONTOUR
6
0
10
1404.200
20
90.300
30
0
0
VERTEX
8
CONTOUR
6
0
10
1381.390
20
90.180
30
0
0
VERTEX
8
CONTOUR
6
0
10
1358.590
20
89.820
30
0
0
VERTEX
8
CONTOUR
6
0
10
1335.790
20
89.280
30
0
0
VERTEX
8
CONTOUR
6
0
10
1313.000
20
88.640
30
0
0
VERTEX
8
CONTOUR
6
0
10
1290.220
20
87.870
30
0
0
VERTEX
8
CONTOUR
6
0
10
1267.440
20
86.970
30
0
0
VERTEX
8
CONTOUR
6
0
10
1244.660
20
85.950
30
0
0
VERTEX
8
CONTOUR
6
0
10
1221.890
20
84.790
30
0
0
VERTEX
8
CONTOUR
6
0
10
1199.130
20
83.560
30
0
0
VERTEX
8
CONTOUR
6
0
10
1153.600
20
81.020
30
0
0
VERTEX
8
CONTOUR
6
0
10
1134.060
20
80.130
30
0
0
VERTEX
8
CONTOUR
6
0
10
1114.530
20
79.210
30
0
0
VERTEX
8
CONTOUR
6
0
10
1094.990
20
78.270
30
0
0
VERTEX
8
CONTOUR
6
0
10
1075.460
20
77.290
30
0
0
VERTEX
8
CONTOUR
6
0
10
1055.920
20
76.270
30
0
0
VERTEX
8
CONTOUR
6
0
10
1036.390
20
75.230
30
0
0
VERTEX
8
CONTOUR
6
0
10
1016.860
20
74.160
30
0
0
VERTEX
8
CONTOUR
6
0
10
997.340
20
73.050
30
0
0
VERTEX
8
CONTOUR
6
0
10
977.810
20
71.910
30
0
0
VERTEX
8
CONTOUR
6
0
10
958.290
20
70.750
30
0
0
VERTEX
8
CONTOUR
6
0
10
938.770
20
69.550
30
0
0
VERTEX
8
CONTOUR
6
0
10
919.250
20
68.310
30
0
0
VERTEX
8
CONTOUR
6
0
10
899.730
20
67.050
30
0
0
VERTEX
8
CONTOUR
6
0
10
880.210
20
65.760
30
0
0
VERTEX
8
CONTOUR
6
0
10
860.700
20
64.430
30
0
0
VERTEX
8
CONTOUR
6
0
10
841.190
20
63.080
30
0
0
VERTEX
8
CONTOUR
6
0
10
821.680
20
61.690
30
0
0
VERTEX
8
CONTOUR
6
0
10
802.170
20
60.270
30
0
0
VERTEX
8
CONTOUR
6
0
10
782.660
20
58.820
30
0
0
VERTEX
8
CONTOUR
6
0
10
763.160
20
57.340
30
0
0
VERTEX
8
CONTOUR
6
0
10
743.660
20
55.830
30
0
0
VERTEX
8
CONTOUR
6
0
10
724.160
20
54.280
30
0
0
VERTEX
8
CONTOUR
6
0
10
704.670
20
52.710
30
0
0
VERTEX
8
CONTOUR
6
0
10
685.180
20
51.100
30
0
0
VERTEX
8
CONTOUR
6
0
10
665.690
20
49.470
30
0
0
VERTEX
8
CONTOUR
6
0
10
646.200
20
47.800
30
0
0
VERTEX
8
CONTOUR
6
0
10
626.710
20
46.100
30
0
0
VERTEX
8
CONTOUR
6
0
10
607.230
20
44.370
30
0
0
VERTEX
8
CONTOUR
6
0
10
587.750
20
42.600
30
0
0
VERTEX
8
CONTOUR
6
0
10
568.280
20
40.810
30
0
0
VERTEX
8
CONTOUR
6
0
10
548.800
20
38.980
30
0
0
VERTEX
8
CONTOUR
6
0
10
529.330
20
37.130
30
0
0
VERTEX
8
CONTOUR
6
0
10
509.870
20
35.240
30
0
0
VERTEX
8
CONTOUR
6
0
10
490.400
20
33.320
30
0
0
VERTEX
8
CONTOUR
6
0
10
470.940
20
31.370
30
0
0
VERTEX
8
CONTOUR
6
0
10
451.480
20
29.390
30
0
0
VERTEX
8
CONTOUR
6
0
10
432.030
20
27.380
30
0
0
VERTEX
8
CONTOUR
6
0
10
412.580
20
25.340
30
0
0
VERTEX
8
CONTOUR
6
0
10
393.130
20
23.260
30
0
0
VERTEX
8
CONTOUR
6
0
10
373.680
20
21.150
30
0
0
VERTEX
8
CONTOUR
6
0
10
354.240
20
19.020
30
0
0
VERTEX
8
CONTOUR
6
0
10
334.800
20
16.850
30
0
0
VERTEX
8
CONTOUR
6
0
10
315.370
20
14.650
30
0
0
VERTEX
8
CONTOUR
6
0
10
295.940
20
12.420
30
0
0
VERTEX
8
CONTOUR
6
0
10
276.510
20
10.160
30
0
0
VERTEX
8
CONTOUR
6
0
10
257.090
20
7.870
30
0
0
VERTEX
8
CONTOUR
6
0
10
237.670
20
5.540
30
0
0
VERTEX
8
CONTOUR
6
0
10
218.250
20
3.190
30
0
0
VERTEX
8
CONTOUR
6
0
10
189.790
20
0.000
30
0
0
VERTEX
8
CONTOUR
6
0
10
0.000
20
89.300
30
0
0
SEQEND
0
POLYLINE
6
0
8
PROFIL_LIMON
62
0
10
0
20
0
30
0.000
66
1
0
VERTEX
8
PROFIL_LIMON
6
0
10
0.000
20
89.300
30
0
0
VERTEX
8
PROFIL_LIMON
6
0
10
85.030
20
270.020
30
0
0
VERTEX
8
PROFIL_LIMON
6
0
10
434.850
20
309.190
30
0
0
VERTEX
8
PROFIL_LIMON
6
0
10
456.380
20
311.360
30
0
0
VERTEX
8
PROFIL_LIMON
6
0
10
477.910
20
313.480
30
0
0
VERTEX
8
PROFIL_LIMON
6
0
10
499.440
20
315.560
30
0
0
VERTEX
8
PROFIL_LIMON
6
0
10
520.980
20
317.600
30
0
0
VERTEX
8
PROFIL_LIMON
6
0
10
542.520
20
319.610
30
0
0
VERTEX
8
PROFIL_LIMON
6
0
10
564.070
20
321.590
30
0
0
VERTEX
8
PROFIL_LIMON
6
0
10
585.620
20
323.520
30
0
0
VERTEX
8
PROFIL_LIMON
6
0
10
607.170
20
325.430
30
0
0
VERTEX
8
PROFIL_LIMON
6
0
10
628.720
20
327.290
30
0
0
VERTEX
8
PROFIL_LIMON
6
0
10
650.280
20
329.130
30
0
0
VERTEX
8
PROFIL_LIMON
6
0
10
671.840
20
330.930
30
0
0
VERTEX
8
PROFIL_LIMON
6
0
10
693.400
20
332.690
30
0
0
VERTEX
8
PROFIL_LIMON
6
0
10
714.970
20
334.420
30
0
0
VERTEX
8
PROFIL_LIMON
6
0
10
736.540
20
336.110
30
0
0
VERTEX
8
PROFIL_LIMON
6
0
10
758.110
20
337.770
30
0
0
VERTEX
8
PROFIL_LIMON
6
0
10
779.680
20
339.400
30
0
0
VERTEX
8
PROFIL_LIMON
6
0
10
802.390
20
341.090
30
0
0
VERTEX
8
PROFIL_LIMON
6
0
10
825.090
20
342.750
30
0
0
VERTEX
8
PROFIL_LIMON
6
0
10
847.800
20
344.370
30
0
0
VERTEX
8
PROFIL_LIMON
6
0
10
870.510
20
345.950
30
0
0
VERTEX
8
PROFIL_LIMON
6
0
10
893.230
20
347.500
30
0
0
VERTEX
8
PROFIL_LIMON
6
0
10
915.950
20
348.990
30
0
0
VERTEX
8
PROFIL_LIMON
6
0
10
938.670
20
350.430
30
0
0
VERTEX
8
PROFIL_LIMON
6
0
10
961.390
20
351.810
30
0
0
VERTEX
8
PROFIL_LIMON
6
0
10
984.120
20
353.090
30
0
0
VERTEX
8
PROFIL_LIMON
6
0
10
1006.860
20
354.310
30
0
0
VERTEX
8
PROFIL_LIMON
6
0
10
1029.590
20
355.480
30
0
0
VERTEX
8
PROFIL_LIMON
6
0
10
1052.330
20
356.610
30
0
0
VERTEX
8
PROFIL_LIMON
6
0
10
1075.070
20
357.690
30
0
0
VERTEX
8
PROFIL_LIMON
6
0
10
1120.550
20
359.800
30
0
0
VERTEX
8
PROFIL_LIMON
6
0
10
1143.290
20
360.900
30
0
0
VERTEX
8
PROFIL_LIMON
6
0
10
1168.220
20
362.250
30
0
0
VERTEX
8
PROFIL_LIMON
6
0
10
1193.140
20
363.640
30
0
0
VERTEX
8
PROFIL_LIMON
6
0
10
1218.060
20
364.980
30
0
0
VERTEX
8
PROFIL_LIMON
6
0
10
1242.990
20
366.250
30
0
0
VERTEX
8
PROFIL_LIMON
6
0
10
1267.920
20
367.390
30
0
0
VERTEX
8
PROFIL_LIMON
6
0
10
1292.860
20
368.400
30
0
0
VERTEX
8
PROFIL_LIMON
6
0
10
1317.800
20
369.260
30
0
0
VERTEX
8
PROFIL_LIMON
6
0
10
1342.750
20
369.950
30
0
0
VERTEX
8
PROFIL_LIMON
6
0
10
1367.710
20
370.430
30
0
0
VERTEX
8
PROFIL_LIMON
6
0
10
1392.680
20
370.700
30
0
0
VERTEX
8
PROFIL_LIMON
6
0
10
1417.640
20
370.740
30
0
0
VERTEX
8
PROFIL_LIMON
6
0
10
1442.600
20
370.520
30
0
0
VERTEX
8
PROFIL_LIMON
6
0
10
1467.570
20
370.060
30
0
0
VERTEX
8
PROFIL_LIMON
6
0
10
1492.520
20
369.290
30
0
0
VERTEX
8
PROFIL_LIMON
6
0
10
1517.460
20
368.200
30
0
0
VERTEX
8
PROFIL_LIMON
6
0
10
1542.390
20
366.710
30
0
0
VERTEX
8
PROFIL_LIMON
6
0
10
1577.660
20
363.940
30
0
0
VERTEX
8
PROFIL_LIMON
6
0
10
1612.880
20
360.590
30
0
0
VERTEX
8
PROFIL_LIMON
6
0
10
1648.040
20
356.720
30
0
0
VERTEX
8
PROFIL_LIMON
6
0
10
1683.150
20
352.330
30
0
0
VERTEX
8
PROFIL_LIMON
6
0
10
1718.190
20
347.450
30
0
0
VERTEX
8
PROFIL_LIMON
6
0
10
1753.150
20
342.090
30
0
0
VERTEX
8
PROFIL_LIMON
6
0
10
1788.040
20
336.240
30
0
0
VERTEX
8
PROFIL_LIMON
6
0
10
1822.860
20
329.970
30
0
0
VERTEX
8
PROFIL_LIMON
6
0
10
1857.620
20
323.370
30
0
0
VERTEX
8
PROFIL_LIMON
6
0
10
1892.300
20
316.320
30
0
0
VERTEX
8
PROFIL_LIMON
6
0
10
1926.860
20
308.720
30
0
0
VERTEX
8
PROFIL_LIMON
6
0
10
1961.300
20
300.590
30
0
0
VERTEX
8
PROFIL_LIMON
6
0
10
1995.610
20
291.910
30
0
0
VERTEX
8
PROFIL_LIMON
6
0
10
2029.750
20
282.580
30
0
0
VERTEX
8
PROFIL_LIMON
6
0
10
2063.690
20
272.560
30
0
0
VERTEX
8
PROFIL_LIMON
6
0
10
2097.360
20
261.670
30
0
0
VERTEX
8
PROFIL_LIMON
6
0
10
2133.560
20
244.640
30
0
0
SEQEND
0
POLYLINE
6
0
8
PROFIL_LIMON
62
0
10
0
20
0
30
0.000
66
1
0
VERTEX
8
PROFIL_LIMON
6
0
10
1974.240
20
0.000
30
0
0
VERTEX
8
PROFIL_LIMON
6
0
10
1945.920
20
6.350
30
0
0
VERTEX
8
PROFIL_LIMON
6
0
10
1917.600
20
12.680
30
0
0
VERTEX
8
PROFIL_LIMON
6
0
10
1889.260
20
18.960
30
0
0
VERTEX
8
PROFIL_LIMON
6
0
10
1860.910
20
25.170
30
0
0
VERTEX
8
PROFIL_LIMON
6
0
10
1832.540
20
31.280
30
0
0
VERTEX
8
PROFIL_LIMON
6
0
10
1804.150
20
37.270
30
0
0
VERTEX
8
PROFIL_LIMON
6
0
10
1775.720
20
43.150
30
0
0
VERTEX
8
PROFIL_LIMON
6
0
10
1747.280
20
48.920
30
0
0
VERTEX
8
PROFIL_LIMON
6
0
10
1718.820
20
54.630
30
0
0
VERTEX
8
PROFIL_LIMON
6
0
10
1690.320
20
60.160
30
0
0
VERTEX
8
PROFIL_LIMON
6
0
10
1661.770
20
65.440
30
0
0
VERTEX
8
PROFIL_LIMON
6
0
10
1633.170
20
70.430
30
0
0
VERTEX
8
PROFIL_LIMON
6
0
10
1604.520
20
75.140
30
0
0
VERTEX
8
PROFIL_LIMON
6
0
10
1575.800
20
79.420
30
0
0
VERTEX
8
PROFIL_LIMON
6
0
10
1547.010
20
83.220
30
0
0
VERTEX
8
PROFIL_LIMON
6
0
10
1518.140
20
86.330
30
0
0
VERTEX
8
PROFIL_LIMON
6
0
10
1495.390
20
87.980
30
0
0
VERTEX
8
PROFIL_LIMON
6
0
10
1472.610
20
89.090
30
0
0
VERTEX
8
PROFIL_LIMON
6
0
10
1449.810
20
89.800
30
0
0
VERTEX
8
PROFIL_LIMON
6
0
10
1427.010
20
90.170
30
0
0
VERTEX
8
PROFIL_LIMON
6
0
10
1404.200
20
90.300
30
0
0
VERTEX
8
PROFIL_LIMON
6
0
10
1381.390
20
90.180
30
0
0
VERTEX
8
PROFIL_LIMON
6
0
10
1358.590
20
89.820
30
0
0
VERTEX
8
PROFIL_LIMON
6
0
10
1335.790
20
89.280
30
0
0
VERTEX
8
PROFIL_LIMON
6
0
10
1313.000
20
88.640
30
0
0
VERTEX
8
PROFIL_LIMON
6
0
10
1290.220
20
87.870
30
0
0
VERTEX
8
PROFIL_LIMON
6
0
10
1267.440
20
86.970
30
0
0
VERTEX
8
PROFIL_LIMON
6
0
10
1244.660
20
85.950
30
0
0
VERTEX
8
PROFIL_LIMON
6
0
10
1221.890
20
84.790
30
0
0
VERTEX
8
PROFIL_LIMON
6
0
10
1199.130
20
83.560
30
0
0
VERTEX
8
PROFIL_LIMON
6
0
10
1153.600
20
81.020
30
0
0
VERTEX
8
PROFIL_LIMON
6
0
10
1134.060
20
80.130
30
0
0
VERTEX
8
PROFIL_LIMON
6
0
10
1114.530
20
79.210
30
0
0
VERTEX
8
PROFIL_LIMON
6
0
10
1094.990
20
78.270
30
0
0
VERTEX
8
PROFIL_LIMON
6
0
10
1075.460
20
77.290
30
0
0
VERTEX
8
PROFIL_LIMON
6
0
10
1055.920
20
76.270
30
0
0
VERTEX
8
PROFIL_LIMON
6
0
10
1036.390
20
75.230
30
0
0
VERTEX
8
PROFIL_LIMON
6
0
10
1016.860
20
74.160
30
0
0
VERTEX
8
PROFIL_LIMON
6
0
10
997.340
20
73.050
30
0
0
VERTEX
8
PROFIL_LIMON
6
0
10
977.810
20
71.910
30
0
0
VERTEX
8
PROFIL_LIMON
6
0
10
958.290
20
70.750
30
0
0
VERTEX
8
PROFIL_LIMON
6
0
10
938.770
20
69.550
30
0
0
VERTEX
8
PROFIL_LIMON
6
0
10
919.250
20
68.310
30
0
0
VERTEX
8
PROFIL_LIMON
6
0
10
899.730
20
67.050
30
0
0
VERTEX
8
PROFIL_LIMON
6
0
10
880.210
20
65.760
30
0
0
VERTEX
8
PROFIL_LIMON
6
0
10
860.700
20
64.430
30
0
0
VERTEX
8
PROFIL_LIMON
6
0
10
841.190
20
63.080
30
0
0
VERTEX
8
PROFIL_LIMON
6
0
10
821.680
20
61.690
30
0
0
VERTEX
8
PROFIL_LIMON
6
0
10
802.170
20
60.270
30
0
0
VERTEX
8
PROFIL_LIMON
6
0
10
782.660
20
58.820
30
0
0
VERTEX
8
PROFIL_LIMON
6
0
10
763.160
20
57.340
30
0
0
VERTEX
8
PROFIL_LIMON
6
0
10
743.660
20
55.830
30
0
0
VERTEX
8
PROFIL_LIMON
6
0
10
724.160
20
54.280
30
0
0
VERTEX
8
PROFIL_LIMON
6
0
10
704.670
20
52.710
30
0
0
VERTEX
8
PROFIL_LIMON
6
0
10
685.180
20
51.100
30
0
0
VERTEX
8
PROFIL_LIMON
6
0
10
665.690
20
49.470
30
0
0
VERTEX
8
PROFIL_LIMON
6
0
10
646.200
20
47.800
30
0
0
VERTEX
8
PROFIL_LIMON
6
0
10
626.710
20
46.100
30
0
0
VERTEX
8
PROFIL_LIMON
6
0
10
607.230
20
44.370
30
0
0
VERTEX
8
PROFIL_LIMON
6
0
10
587.750
20
42.600
30
0
0
VERTEX
8
PROFIL_LIMON
6
0
10
568.280
20
40.810
30
0
0
VERTEX
8
PROFIL_LIMON
6
0
10
548.800
20
38.980
30
0
0
VERTEX
8
PROFIL_LIMON
6
0
10
529.330
20
37.130
30
0
0
VERTEX
8
PROFIL_LIMON
6
0
10
509.870
20
35.240
30
0
0
VERTEX
8
PROFIL_LIMON
6
0
10
490.400
20
33.320
30
0
0
VERTEX
8
PROFIL_LIMON
6
0
10
470.940
20
31.370
30
0
0
VERTEX
8
PROFIL_LIMON
6
0
10
451.480
20
29.390
30
0
0
VERTEX
8
PROFIL_LIMON
6
0
10
432.030
20
27.380
30
0
0
VERTEX
8
PROFIL_LIMON
6
0
10
412.580
20
25.340
30
0
0
VERTEX
8
PROFIL_LIMON
6
0
10
393.130
20
23.260
30
0
0
VERTEX
8
PROFIL_LIMON
6
0
10
373.680
20
21.150
30
0
0
VERTEX
8
PROFIL_LIMON
6
0
10
354.240
20
19.020
30
0
0
VERTEX
8
PROFIL_LIMON
6
0
10
334.800
20
16.850
30
0
0
VERTEX
8
PROFIL_LIMON
6
0
10
315.370
20
14.650
30
0
0
VERTEX
8
PROFIL_LIMON
6
0
10
295.940
20
12.420
30
0
0
VERTEX
8
PROFIL_LIMON
6
0
10
276.510
20
10.160
30
0
0
VERTEX
8
PROFIL_LIMON
6
0
10
257.090
20
7.870
30
0
0
VERTEX
8
PROFIL_LIMON
6
0
10
237.670
20
5.540
30
0
0
VERTEX
8
PROFIL_LIMON
6
0
10
218.250
20
3.190
30
0
0
VERTEX
8
PROFIL_LIMON
6
0
10
189.790
20
0.000
30
0
0
SEQEND
0
POLYLINE
6
0
8
PROFIL_MINUS
62
0
10
0
20
0
30
0.000
66
1
0
VERTEX
8
PROFIL_MINUS
6
0
10
2133.560
20
244.640
30
0
0
VERTEX
8
PROFIL_MINUS
6
0
10
2048.910
20
64.750
30
0
0
VERTEX
8
PROFIL_MINUS
6
0
10
2012.720
20
81.780
30
0
0
VERTEX
8
PROFIL_MINUS
6
0
10
1974.240
20
0.000
30
0
0
SEQEND
0
POLYLINE
6
0
8
PROFIL_MINUS
62
0
10
0
20
0
30
0.000
66
1
0
VERTEX
8
PROFIL_MINUS
6
0
10
189.790
20
0.000
30
0
0
VERTEX
8
PROFIL_MINUS
6
0
10
0.000
20
89.300
30
0
0
SEQEND
0
POLYLINE
6
1
8
ENTAILLE_MARCHE_15
62
1
10
0
20
0
30
0.000
66
1
0
VERTEX
8
ENTAILLE_MARCHE_15
6
1
10
107.540
20
247.380
30
0
0
VERTEX
8
ENTAILLE_MARCHE_15
6
1
10
93.060
20
216.620
30
0
0
VERTEX
8
ENTAILLE_MARCHE_15
6
1
10
376.290
20
83.350
30
0
0
VERTEX
8
ENTAILLE_MARCHE_15
6
1
10
390.770
20
114.120
30
0
0
VERTEX
8
ENTAILLE_MARCHE_15
6
1
10
107.540
20
247.380
30
0
0
SEQEND
0
POLYLINE
6
1
8
ENTAILLE_CM_15
62
1
10
0
20
0
30
0.000
66
1
0
VERTEX
8
ENTAILLE_CM_15
6
1
10
128.770
20
221.920
30
0
0
VERTEX
8
ENTAILLE_CM_15
6
1
10
122.390
20
208.350
30
0
0
VERTEX
8
ENTAILLE_CM_15
6
1
10
54.340
20
63.730
30
0
0
VERTEX
8
ENTAILLE_CM_15
6
1
10
47.950
20
50.160
30
0
0
VERTEX
8
ENTAILLE_CM_15
6
1
10
66.090
20
41.630
30
0
0
VERTEX
8
ENTAILLE_CM_15
6
1
10
72.470
20
55.200
30
0
0
VERTEX
8
ENTAILLE_CM_15
6
1
10
140.520
20
199.820
30
0
0
VERTEX
8
ENTAILLE_CM_15
6
1
10
146.900
20
213.390
30
0
0
VERTEX
8
ENTAILLE_CM_15
6
1
10
128.770
20
221.920
30
0
0
SEQEND
0
POLYLINE
6
1
8
ENTAILLE_MARCHE_15
62
1
10
0
20
0
30
0.000
66
1
0
VERTEX
8
ENTAILLE_MARCHE_15
6
1
10
437.330
20
284.310
30
0
0
VERTEX
8
ENTAILLE_MARCHE_15
6
1
10
422.860
20
253.540
30
0
0
VERTEX
8
ENTAILLE_MARCHE_15
6
1
10
720.200
20
113.640
30
0
0
VERTEX
8
ENTAILLE_MARCHE_15
6
1
10
734.670
20
144.400
30
0
0
VERTEX
8
ENTAILLE_MARCHE_15
6
1
10
437.330
20
284.310
30
0
0
SEQEND
0
POLYLINE
6
1
8
ENTAILLE_MARCHE_15
62
1
10
0
20
0
30
0.000
66
1
0
VERTEX
8
ENTAILLE_MARCHE_15
6
1
10
781.510
20
314.470
30
0
0
VERTEX
8
ENTAILLE_MARCHE_15
6
1
10
767.040
20
283.700
30
0
0
VERTEX
8
ENTAILLE_MARCHE_15
6
1
10
1083.080
20
134.990
30
0
0
VERTEX
8
ENTAILLE_MARCHE_15
6
1
10
1097.560
20
165.760
30
0
0
VERTEX
8
ENTAILLE_MARCHE_15
6
1
10
781.510
20
314.470
30
0
0
SEQEND
0
POLYLINE
6
1
8
ENTAILLE_MARCHE_15
62
1
10
0
20
0
30
0.000
66
1
0
VERTEX
8
ENTAILLE_MARCHE_15
6
1
10
1144.220
20
335.910
30
0
0
VERTEX
8
ENTAILLE_MARCHE_15
6
1
10
1129.740
20
305.140
30
0
0
VERTEX
8
ENTAILLE_MARCHE_15
6
1
10
1480.540
20
140.080
30
0
0
VERTEX
8
ENTAILLE_MARCHE_15
6
1
10
1495.020
20
170.850
30
0
0
VERTEX
8
ENTAILLE_MARCHE_15
6
1
10
1144.220
20
335.910
30
0
0
SEQEND
0
POLYLINE
6
1
8
ENTAILLE_MARCHE_15
62
1
10
0
20
0
30
0.000
66
1
0
VERTEX
8
ENTAILLE_MARCHE_15
6
1
10
1540.220
20
341.680
30
0
0
VERTEX
8
ENTAILLE_MARCHE_15
6
1
10
1525.750
20
310.920
30
0
0
VERTEX
8
ENTAILLE_MARCHE_15
6
1
10
2026.370
20
75.360
30
0
0
VERTEX
8
ENTAILLE_MARCHE_15
6
1
10
2039.940
20
68.970
30
0
0
VERTEX
8
ENTAILLE_MARCHE_15
6
1
10
2054.420
20
99.740
30
0
0
VERTEX
8
ENTAILLE_MARCHE_15
6
1
10
2040.840
20
106.120
30
0
0
VERTEX
8
ENTAILLE_MARCHE_15
6
1
10
1540.220
20
341.680
30
0
0
SEQEND
0
ENDSEC
0
EOF
