  0
SECTION
  2
HEADER
  9
$ACADVER
  1
AC1024
  9
$ACADMAINTVER
 70
   226
  9
$DWGCODEPAGE
  3
ANSI_1252
  9
$INSBASE
 10
0.0
 20
0.0
 30
0.0
  9
$EXTMIN
 10
1.000000000000000E+20
 20
1.000000000000000E+20
 30
1.000000000000000E+20
  9
$EXTMAX
 10
-1.000000000000000E+20
 20
-1.000000000000000E+20
 30
-1.000000000000000E+20
  9
$LIMMIN
 10
0.0
 20
0.0
  9
$LIMMAX
 10
12.0
 20
9.0
  9
$ORTHOMODE
 70
     0
  9
$REGENMODE
 70
     1
  9
$FILLMODE
 70
     1
  9
$QTEXTMODE
 70
     0
  9
$MIRRTEXT
 70
     1
  9
$LTSCALE
 40
1.0
  9
$ATTMODE
 70
     1
  9
$TEXTSIZE
 40
0.2
  9
$TRACEWID
 40
0.05
  9
$TEXTSTYLE
  7
Standard
  9
$CLAYER
  8
0
  9
$CELTYPE
  6
ByLayer
  9
$CECOLOR
 62
   256
  9
$CELTSCALE
 40
1.0
  9
$DISPSILH
 70
     0
  9
$DIMSCALE
 40
1.0
  9
$DIMASZ
 40
0.18
  9
$DIMEXO
 40
0.0625
  9
$DIMDLI
 40
0.38
  9
$DIMRND
 40
0.0
  9
$DIMDLE
 40
0.0
  9
$DIMEXE
 40
0.18
  9
$DIMTP
 40
0.0
  9
$DIMTM
 40
0.0
  9
$DIMTXT
 40
0.18
  9
$DIMCEN
 40
0.09
  9
$DIMTSZ
 40
0.0
  9
$DIMTOL
 70
     0
  9
$DIMLIM
 70
     0
  9
$DIMTIH
 70
     1
  9
$DIMTOH
 70
     1
  9
$DIMSE1
 70
     0
  9
$DIMSE2
 70
     0
  9
$DIMTAD
 70
     0
  9
$DIMZIN
 70
     0
  9
$DIMBLK
  1

  9
$DIMASO
 70
     1
  9
$DIMSHO
 70
     1
  9
$DIMPOST
  1

  9
$DIMAPOST
  1

  9
$DIMALT
 70
     0
  9
$DIMALTD
 70
     2
  9
$DIMALTF
 40
25.4
  9
$DIMLFAC
 40
1.0
  9
$DIMTOFL
 70
     0
  9
$DIMTVP
 40
0.0
  9
$DIMTIX
 70
     0
  9
$DIMSOXD
 70
     0
  9
$DIMSAH
 70
     0
  9
$DIMBLK1
  1

  9
$DIMBLK2
  1

  9
$DIMSTYLE
  2
Standard
  9
$DIMCLRD
 70
     0
  9
$DIMCLRE
 70
     0
  9
$DIMCLRT
 70
     0
  9
$DIMTFAC
 40
1.0
  9
$DIMGAP
 40
0.09
  9
$DIMJUST
 70
     0
  9
$DIMSD1
 70
     0
  9
$DIMSD2
 70
     0
  9
$DIMTOLJ
 70
     1
  9
$DIMTZIN
 70
     0
  9
$DIMALTZ
 70
     0
  9
$DIMALTTZ
 70
     0
  9
$DIMUPT
 70
     0
  9
$DIMDEC
 70
     4
  9
$DIMTDEC
 70
     4
  9
$DIMALTU
 70
     2
  9
$DIMALTTD
 70
     2
  9
$DIMTXSTY
  7
Standard
  9
$DIMAUNIT
 70
     0
  9
$DIMADEC
 70
     0
  9
$DIMALTRND
 40
0.0
  9
$DIMAZIN
 70
     0
  9
$DIMDSEP
 70
    46
  9
$DIMATFIT
 70
     3
  9
$DIMFRAC
 70
     0
  9
$DIMLDRBLK
  1

  9
$DIMLUNIT
 70
     2
  9
$DIMLWD
 70
    -2
  9
$DIMLWE
 70
    -2
  9
$DIMTMOVE
 70
     0
  9
$DIMFXL
 40
1.0
  9
$DIMFXLON
 70
     0
  9
$DIMJOGANG
 40
0.7853981633974483
  9
$DIMTFILL
 70
     0
  9
$DIMTFILLCLR
 70
     0
  9
$DIMARCSYM
 70
     0
  9
$DIMLTYPE
  6

  9
$DIMLTEX1
  6

  9
$DIMLTEX2
  6

  9
$DIMTXTDIRECTION
 70
     0
  9
$LUNITS
 70
     2
  9
$LUPREC
 70
     4
  9
$SKETCHINC
 40
0.1
  9
$FILLETRAD
 40
0.5
  9
$AUNITS
 70
     0
  9
$AUPREC
 70
     0
  9
$MENU
  1
.
  9
$ELEVATION
 40
0.0
  9
$PELEVATION
 40
0.0
  9
$THICKNESS
 40
0.0
  9
$LIMCHECK
 70
     0
  9
$CHAMFERA
 40
0.5
  9
$CHAMFERB
 40
0.5
  9
$CHAMFERC
 40
1.0
  9
$CHAMFERD
 40
0.0
  9
$SKPOLY
 70
     0
  9
$TDCREATE
 40
2451380.888761574
  9
$TDUCREATE
 40
2451380.805432396
  9
$TDUPDATE
 40
2451380.924513889
  9
$TDUUPDATE
 40
2451380.841180556
  9
$TDINDWG
 40
0.0075833681
  9
$TDUSRTIMER
 40
0.0075743287
  9
$USRTIMER
 70
     1
  9
$ANGBASE
 50
0.0
  9
$ANGDIR
 70
     0
  9
$PDMODE
 70
     0
  9
$PDSIZE
 40
0.0
  9
$PLINEWID
 40
0.0
  9
$SPLFRAME
 70
     0
  9
$SPLINETYPE
 70
     6
  9
$SPLINESEGS
 70
     8
  9
$HANDSEED
  5
367
  9
$SURFTAB1
 70
     6
  9
$SURFTAB2
 70
     6
  9
$SURFTYPE
 70
     6
  9
$SURFU
 70
     6
  9
$SURFV
 70
     6
  9
$UCSBASE
  2

  9
$UCSNAME
  2

  9
$UCSORG
 10
0.0
 20
0.0
 30
0.0
  9
$UCSXDIR
 10
1.0
 20
0.0
 30
0.0
  9
$UCSYDIR
 10
0.0
 20
1.0
 30
0.0
  9
$UCSORTHOREF
  2

  9
$UCSORTHOVIEW
 70
     0
  9
$UCSORGTOP
 10
0.0
 20
0.0
 30
0.0
  9
$UCSORGBOTTOM
 10
0.0
 20
0.0
 30
0.0
  9
$UCSORGLEFT
 10
0.0
 20
0.0
 30
0.0
  9
$UCSORGRIGHT
 10
0.0
 20
0.0
 30
0.0
  9
$UCSORGFRONT
 10
0.0
 20
0.0
 30
0.0
  9
$UCSORGBACK
 10
0.0
 20
0.0
 30
0.0
  9
$PUCSBASE
  2

  9
$PUCSNAME
  2

  9
$PUCSORG
 10
0.0
 20
0.0
 30
0.0
  9
$PUCSXDIR
 10
1.0
 20
0.0
 30
0.0
  9
$PUCSYDIR
 10
0.0
 20
1.0
 30
0.0
  9
$PUCSORTHOREF
  2

  9
$PUCSORTHOVIEW
 70
     0
  9
$PUCSORGTOP
 10
0.0
 20
0.0
 30
0.0
  9
$PUCSORGBOTTOM
 10
0.0
 20
0.0
 30
0.0
  9
$PUCSORGLEFT
 10
0.0
 20
0.0
 30
0.0
  9
$PUCSORGRIGHT
 10
0.0
 20
0.0
 30
0.0
  9
$PUCSORGFRONT
 10
0.0
 20
0.0
 30
0.0
  9
$PUCSORGBACK
 10
0.0
 20
0.0
 30
0.0
  9
$USERI1
 70
     0
  9
$USERI2
 70
     0
  9
$USERI3
 70
     0
  9
$USERI4
 70
     0
  9
$USERI5
 70
     0
  9
$USERR1
 40
0.0
  9
$USERR2
 40
0.0
  9
$USERR3
 40
0.0
  9
$USERR4
 40
0.0
  9
$USERR5
 40
0.0
  9
$WORLDVIEW
 70
     1
  9
$SHADEDGE
 70
     3
  9
$SHADEDIF
 70
    70
  9
$TILEMODE
 70
     1
  9
$MAXACTVP
 70
    64
  9
$PINSBASE
 10
0.0
 20
0.0
 30
0.0
  9
$PLIMCHECK
 70
     0
  9
$PEXTMIN
 10
1.000000000000000E+20
 20
1.000000000000000E+20
 30
1.000000000000000E+20
  9
$PEXTMAX
 10
-1.000000000000000E+20
 20
-1.000000000000000E+20
 30
-1.000000000000000E+20
  9
$PLIMMIN
 10
0.0
 20
0.0
  9
$PLIMMAX
 10
12.0
 20
9.0
  9
$UNITMODE
 70
     0
  9
$VISRETAIN
 70
     1
  9
$PLINEGEN
 70
     0
  9
$PSLTSCALE
 70
     1
  9
$TREEDEPTH
 70
  3020
  9
$CMLSTYLE
  2
Standard
  9
$CMLJUST
 70
     0
  9
$CMLSCALE
 40
1.0
  9
$PROXYGRAPHICS
 70
     1
  9
$MEASUREMENT
 70
     0
  9
$CELWEIGHT
370
    -1
  9
$ENDCAPS
280
     0
  9
$JOINSTYLE
280
     0
  9
$LWDISPLAY
290
     0
  9
$INSUNITS
 70
     1
  9
$HYPERLINKBASE
  1

  9
$STYLESHEET
  1

  9
$XEDIT
290
     1
  9
$CEPSNTYPE
380
     0
  9
$PSTYLEMODE
290
     1
  9
$FINGERPRINTGUID
  2
{12F50282-3ED8-11D3-A8B7-0060B0F84BC6}
  9
$VERSIONGUID
  2
{12F50293-3ED8-11D3-A8B7-0060B0F84BC6}
  9
$EXTNAMES
290
     1
  9
$PSVPSCALE
 40
0.0
  9
$OLESTARTUP
290
     0
  9
$SORTENTS
280
   127
  9
$INDEXCTL
280
     0
  9
$HIDETEXT
280
     0
  9
$XCLIPFRAME
280
     2
  9
$HALOGAP
280
     0
  9
$OBSCOLOR
 70
   257
  9
$OBSLTYPE
280
     0
  9
$INTERSECTIONDISPLAY
280
     0
  9
$INTERSECTIONCOLOR
 70
   257
  9
$DIMASSOC
280
     1
  9
$PROJECTNAME
  1

  9
$CAMERADISPLAY
290
     0
  9
$LENSLENGTH
 40
50.0
  9
$CAMERAHEIGHT
 40
0.0
  9
$STEPSPERSEC
 40
2.0
  9
$STEPSIZE
 40
6.0
  9
$3DDWFPREC
 40
2.0
  9
$PSOLWIDTH
 40
0.25
  9
$PSOLHEIGHT
 40
4.0
  9
$LOFTANG1
 40
1.570796326794896
  9
$LOFTANG2
 40
1.570796326794896
  9
$LOFTMAG1
 40
0.0
  9
$LOFTMAG2
 40
0.0
  9
$LOFTPARAM
 70
     7
  9
$LOFTNORMALS
280
     1
  9
$LATITUDE
 40
37.795
  9
$LONGITUDE
 40
-122.394
  9
$NORTHDIRECTION
 40
0.0
  9
$TIMEZONE
 70
 -8000
  9
$LIGHTGLYPHDISPLAY
280
     1
  9
$TILEMODELIGHTSYNCH
280
     1
  9
$CMATERIAL
347
AB
  9
$SOLIDHIST
280
     0
  9
$SHOWHIST
280
     1
  9
$DWFFRAME
280
     2
  9
$DGNFRAME
280
     0
  9
$REALWORLDSCALE
290
     1
  9
$INTERFERECOLOR
 62
     1
  9
$INTERFEREOBJVS
345
CD
  9
$INTERFEREVPVS
346
CA
  9
$CSHADOW
280
     0
  9
$SHADOWPLANELOCATION
 40
0.0
  0
ENDSEC
  0
SECTION
  2
CLASSES
  0
CLASS
  1
ACDBDICTIONARYWDFLT
  2
AcDbDictionaryWithDefault
  3
ObjectDBX Classes
 90
        0
 91
        1
280
     0
281
     0
  0
CLASS
  1
ACDBPLACEHOLDER
  2
AcDbPlaceHolder
  3
ObjectDBX Classes
 90
        0
 91
        2
280
     0
281
     0
  0
CLASS
  1
LAYOUT
  2
AcDbLayout
  3
ObjectDBX Classes
 90
        0
 91
        3
280
     0
281
     0
  0
CLASS
  1
MATERIAL
  2
AcDbMaterial
  3
ObjectDBX Classes
 90
     1153
 91
        3
280
     0
281
     0
  0
CLASS
  1
VISUALSTYLE
  2
AcDbVisualStyle
  3
ObjectDBX Classes
 90
     4095
 91
       24
280
     0
281
     0
  0
CLASS
  1
TABLESTYLE
  2
AcDbTableStyle
  3
ObjectDBX Classes
 90
     4095
 91
        1
280
     0
281
     0
  0
CLASS
  1
SCALE
  2
AcDbScale
  3
ObjectDBX Classes
 90
     1153
 91
       17
280
     0
281
     0
  0
CLASS
  1
MLEADERSTYLE
  2
AcDbMLeaderStyle
  3
ACDB_MLEADERSTYLE_CLASS
 90
     4095
 91
        1
280
     0
281
     0
  0
CLASS
  1
ACDBSECTIONVIEWSTYLE
  2
AcDbSectionViewStyle
  3
ObjectDBX Classes
 90
     1025
 91
        1
280
     0
281
     0
  0
CLASS
  1
ACDBDETAILVIEWSTYLE
  2
AcDbDetailViewStyle
  3
ObjectDBX Classes
 90
     1025
 91
        1
280
     0
281
     0
  0
CLASS
  1
DICTIONARYVAR
  2
AcDbDictionaryVar
  3
ObjectDBX Classes
 90
        0
 91
        9
280
     0
281
     0
  0
CLASS
  1
CELLSTYLEMAP
  2
AcDbCellStyleMap
  3
ObjectDBX Classes
 90
     1152
 91
        1
280
     0
281
     0
  0
ENDSEC
  0
SECTION
  2
TABLES
  0
TABLE
  2
VPORT
  5
8
330
0
100
AcDbSymbolTable
 70
     1
  0
VPORT
  5
A8
330
8
100
AcDbSymbolTableRecord
100
AcDbViewportTableRecord
  2
*Active
 70
     0
 10
0.0
 20
0.0
 11
1.0
 21
1.0
 12
-36.07772064208984
 22
-155.2851867675781
 13
0.0
 23
0.0
 14
0.5
 24
0.5
 15
0.5
 25
0.5
 16
-1.0
 26
-1.0
 36
1.0
 17
0.0
 27
0.0
 37
0.0
 40
238.8363133558951
 41
0.8663808230112286
 42
50.0
 43
0.0
 44
0.0
 50
0.0
 51
0.0
 71
     0
 72
   100
 73
     1
 74
     3
 75
     0
 76
     0
 77
     0
 78
     0
281
     0
 65
     1
110
0.0
120
0.0
130
0.0
111
1.0
121
0.0
131
0.0
112
0.0
122
1.0
132
0.0
 79
     0
146
0.0
348
C9
 60
     3
 61
     5
292
     1
282
     1
141
0.0
142
0.0
 63
   250
421
  3355443
  0
ENDTAB
  0
TABLE
  2
LTYPE
  5
5
330
0
100
AcDbSymbolTable
 70
     1
  0
LTYPE
  5
14
330
5
100
AcDbSymbolTableRecord
100
AcDbLinetypeTableRecord
  2
ByBlock
 70
     0
  3

 72
    65
 73
     0
 40
0.0
  0
LTYPE
  5
15
330
5
100
AcDbSymbolTableRecord
100
AcDbLinetypeTableRecord
  2
ByLayer
 70
     0
  3

 72
    65
 73
     0
 40
0.0
  0
LTYPE
  5
16
330
5
100
AcDbSymbolTableRecord
100
AcDbLinetypeTableRecord
  2
Continuous
 70
     0
  3
Solid line
 72
    65
 73
     0
 40
0.0
  0
ENDTAB
  0
TABLE
  2
LAYER
  5
2
330
0
100
AcDbSymbolTable
 70
     2
  0
LAYER
  5
10
330
2
100
AcDbSymbolTableRecord
100
AcDbLayerTableRecord
  2
0
 70
     0
 62
     9
420
 13092807
  6
Continuous
370
    -3
390
F
347
BB
  0
LAYER
  5
2B
330
2
100
AcDbSymbolTableRecord
100
AcDbLayerTableRecord
  2
ASHADE
 70
     4
 62
     7
  6
Continuous
370
    -3
390
2D
347
BB
  0
ENDTAB
  0
TABLE
  2
STYLE
  5
3
330
0
100
AcDbSymbolTable
 70
     2
  0
STYLE
  5
11
330
3
100
AcDbSymbolTableRecord
100
AcDbTextStyleTableRecord
  2
Standard
 70
     0
 40
0.0
 41
1.0
 50
0.0
 71
     0
 42
0.2
  3
txt
  4

  0
STYLE
  5
2C
330
3
100
AcDbSymbolTableRecord
100
AcDbTextStyleTableRecord
  2
ASHADE
 70
     0
 40
0.2
 41
1.0
 50
0.0
 71
     0
 42
0.2
  3
simplex
  4

  0
ENDTAB
  0
TABLE
  2
VIEW
  5
6
330
0
100
AcDbSymbolTable
 70
     0
  0
ENDTAB
  0
TABLE
  2
UCS
  5
7
330
0
100
AcDbSymbolTable
 70
     0
  0
ENDTAB
  0
TABLE
  2
APPID
  5
9
330
0
100
AcDbSymbolTable
 70
     6
  0
APPID
  5
12
330
9
100
AcDbSymbolTableRecord
100
AcDbRegAppTableRecord
  2
ACAD
 70
     0
  0
APPID
  5
8F
330
9
100
AcDbSymbolTableRecord
100
AcDbRegAppTableRecord
  2
AVE_RENDER
 70
     0
  0
APPID
  5
90
330
9
100
AcDbSymbolTableRecord
100
AcDbRegAppTableRecord
  2
AVE_ENTITY_MATERIAL
 70
     0
  0
APPID
  5
9C
330
9
100
AcDbSymbolTableRecord
100
AcDbRegAppTableRecord
  2
AVE_FINISH
 70
     0
  0
APPID
  5
9D
330
9
100
AcDbSymbolTableRecord
100
AcDbRegAppTableRecord
  2
AVE_MATERIAL
 70
     0
  0
APPID
  5
9E
330
9
100
AcDbSymbolTableRecord
100
AcDbRegAppTableRecord
  2
AVE_GLOBAL
 70
     0
  0
ENDTAB
  0
TABLE
  2
DIMSTYLE
  5
A
330
0
100
AcDbSymbolTable
 70
     1
100
AcDbDimStyleTable
 71
     0
  0
DIMSTYLE
105
27
330
A
100
AcDbSymbolTableRecord
100
AcDbDimStyleTableRecord
  2
Standard
 70
     0
340
11
  0
ENDTAB
  0
TABLE
  2
BLOCK_RECORD
  5
1
330
0
100
AcDbSymbolTable
 70
     6
  0
BLOCK_RECORD
  5
1F
330
1
100
AcDbSymbolTableRecord
100
AcDbBlockTableRecord
  2
*Model_Space
340
22
 70
     0
280
     1
281
     0
  0
BLOCK_RECORD
  5
1B
330
1
100
AcDbSymbolTableRecord
100
AcDbBlockTableRecord
  2
*Paper_Space
340
1E
 70
     0
280
     1
281
     0
  0
BLOCK_RECORD
  5
23
330
1
100
AcDbSymbolTableRecord
100
AcDbBlockTableRecord
  2
*Paper_Space0
340
26
 70
     0
280
     1
281
     0
  0
BLOCK_RECORD
  5
2E
330
1
100
AcDbSymbolTableRecord
100
AcDbBlockTableRecord
  2
direct
340
0
 70
     0
280
     1
281
     0
  0
BLOCK_RECORD
  5
42
330
1
100
AcDbSymbolTableRecord
100
AcDbBlockTableRecord
  2
overhead
340
0
 70
     0
280
     1
281
     0
  0
BLOCK_RECORD
  5
5F
330
1
100
AcDbSymbolTableRecord
100
AcDbBlockTableRecord
  2
sh_spot
340
0
 70
     0
280
     1
281
     0
  0
BLOCK_RECORD
  5
91
330
1
100
AcDbSymbolTableRecord
100
AcDbBlockTableRecord
  2
AVE_RENDER
340
0
102
{BLKREFS
331
94
331
95
331
96
331
97
331
98
331
99
331
9A
331
9B
102
}
 70
     0
280
     1
281
     0
  0
BLOCK_RECORD
  5
9F
330
1
100
AcDbSymbolTableRecord
100
AcDbBlockTableRecord
  2
AVE_GLOBAL
340
0
102
{BLKREFS
331
A2
102
}
 70
     0
280
     1
281
     0
  0
ENDTAB
  0
ENDSEC
  0
SECTION
  2
BLOCKS
  0
BLOCK
  5
20
330
1F
100
AcDbEntity
  8
0
100
AcDbBlockBegin
  2
*Model_Space
 70
     0
 10
0.0
 20
0.0
 30
0.0
  3
*Model_Space
  1

  0
ENDBLK
  5
21
330
1F
100
AcDbEntity
  8
0
100
AcDbBlockEnd
  0
BLOCK
  5
1C
330
1B
100
AcDbEntity
 67
     1
  8
0
100
AcDbBlockBegin
  2
*Paper_Space
 70
     0
 10
0.0
 20
0.0
 30
0.0
  3
*Paper_Space
  1

  0
ENDBLK
  5
1D
330
1B
100
AcDbEntity
 67
     1
  8
0
100
AcDbBlockEnd
  0
BLOCK
  5
24
330
23
100
AcDbEntity
 67
     1
  8
0
100
AcDbBlockBegin
  2
*Paper_Space0
 70
     0
 10
0.0
 20
0.0
 30
0.0
  3
*Paper_Space0
  1

  0
ENDBLK
  5
25
330
23
100
AcDbEntity
 67
     1
  8
0
100
AcDbBlockEnd
  0
BLOCK
  5
40
330
2E
100
AcDbEntity
  8
0
100
AcDbBlockBegin
  2
direct
 70
     2
 10
0.0
 20
0.0
 30
0.0
  3
direct
  1

  0
ATTDEF
  5
2F
330
2E
100
AcDbEntity
  8
ASHADE
  6
Continuous
 62
     1
100
AcDbText
 10
0.0
 20
-0.1
 30
0.0
 40
0.2
  1

  7
ASHADE
 72
     1
 11
0.0
 21
-0.1
 31
0.0
100
AcDbAttributeDefinition
280
     0
  3
Light Name
  2
SNAME
 70
     0
280
     0
  0
ARC
  5
30
330
2E
100
AcDbEntity
  8
ASHADE
  6
Continuous
 62
     7
100
AcDbCircle
 10
0.0
 20
0.0
 30
0.0
 40
0.3
100
AcDbArc
 50
205.6792886194569
 51
334.3207113805431
  0
ARC
  5
31
330
2E
100
AcDbEntity
  8
ASHADE
  6
Continuous
 62
     7
100
AcDbCircle
 10
0.0
 20
0.0
 30
0.0
 40
0.3
100
AcDbArc
 50
25.67928861945685
 51
154.3207113805431
  0
LINE
  5
32
330
2E
100
AcDbEntity
  8
ASHADE
  6
Continuous
 62
     7
100
AcDbLine
 10
-0.21
 20
0.2142428528562855
 30
0.0
 11
-0.21
 21
0.5
 31
0.0
  0
LINE
  5
33
330
2E
100
AcDbEntity
  8
ASHADE
  6
Continuous
 62
     7
100
AcDbLine
 10
-0.11
 20
0.2791057147390572
 30
0.0
 11
-0.11
 21
0.5
 31
0.0
  0
LINE
  5
34
330
2E
100
AcDbEntity
  8
ASHADE
  6
Continuous
 62
     7
100
AcDbLine
 10
0.21
 20
0.2142428528562855
 30
0.0
 11
0.21
 21
0.5
 31
0.0
  0
ATTDEF
  5
35
330
2E
100
AcDbEntity
  8
ASHADE
  6
Continuous
 62
     7
100
AcDbText
 10
0.0
 20
0.25
 30
0.0
 40
0.01
  1

100
AcDbAttributeDefinition
280
     0
  3
Look-at Y
  2
LAY
 70
     1
280
     0
  0
ATTDEF
  5
36
330
2E
100
AcDbEntity
  8
ASHADE
  6
Continuous
 62
     7
100
AcDbText
 10
0.0
 20
0.22
 30
0.0
 40
0.01
  1
1
100
AcDbAttributeDefinition
280
     0
  3
Light Intensity
  2
INTENSITY
 70
     1
280
     0
  0
ATTDEF
  5
37
330
2E
100
AcDbEntity
  8
ASHADE
  6
Continuous
 62
     7
100
AcDbText
 10
0.0
 20
0.16
 30
0.0
 40
0.01
  1
-1
100
AcDbAttributeDefinition
280
     0
  3
*not used*
  2
BEAMD
 70
     1
280
     0
  0
ATTDEF
  5
38
330
2E
100
AcDbEntity
  8
ASHADE
  6
Continuous
 62
     7
100
AcDbText
 10
0.0
 20
0.175
 30
0.0
 40
0.01
  1
-1
100
AcDbAttributeDefinition
280
     0
  3
*not used*
  2
CONED
 70
     1
280
     0
  0
ATTDEF
  5
39
330
2E
100
AcDbEntity
  8
ASHADE
  6
Continuous
 62
     7
100
AcDbText
 10
0.0
 20
0.19
 30
0.0
 40
0.01
  1
0
100
AcDbAttributeDefinition
280
     0
  3
Depth Map Size
  2
CONEA
 70
     1
280
     0
  0
ATTDEF
  5
3A
330
2E
100
AcDbEntity
  8
ASHADE
  6
Continuous
 62
     7
100
AcDbText
 10
0.0
 20
0.2050000000000001
 30
0.0
 40
0.01
  1
1,1,1
100
AcDbAttributeDefinition
280
     0
  3
Light Color (RGB)
  2
COLOR
 70
     1
280
     0
  0
ATTDEF
  5
3B
330
2E
100
AcDbEntity
  8
ASHADE
  6
Continuous
 62
     7
100
AcDbText
 10
0.0
 20
0.235
 30
0.0
 40
0.01
  1

100
AcDbAttributeDefinition
280
     0
  3
Look-at Z
  2
LAZ
 70
     1
280
     0
  0
LINE
  5
3C
330
2E
100
AcDbEntity
  8
ASHADE
  6
Continuous
 62
     7
100
AcDbLine
 10
0.0
 20
0.3
 30
0.0
 11
0.0
 21
0.5
 31
0.0
  0
LINE
  5
3D
330
2E
100
AcDbEntity
  8
ASHADE
  6
Continuous
 62
     7
100
AcDbLine
 10
0.11
 20
0.2791057147390572
 30
0.0
 11
0.11
 21
0.5
 31
0.0
  0
ATTDEF
  5
3E
330
2E
100
AcDbEntity
  8
ASHADE
  6
Continuous
 62
     7
100
AcDbText
 10
0.0
 20
0.265
 30
0.0
 40
0.01
  1

100
AcDbAttributeDefinition
280
     0
  3
Look-at X
  2
LAX
 70
     1
280
     0
  0
ATTDEF
  5
3F
330
2E
100
AcDbEntity
  8
ASHADE
  6
Continuous
 62
     7
100
AcDbText
 10
0.0
 20
0.28
 30
0.0
 40
0.01
  1

100
AcDbAttributeDefinition
280
     0
  3

  2
GNAME
 70
     1
280
     0
  0
ENDBLK
  5
41
330
2E
100
AcDbEntity
  8
0
100
AcDbBlockEnd
  0
BLOCK
  5
5D
330
42
100
AcDbEntity
  8
0
100
AcDbBlockBegin
  2
overhead
 70
     2
 10
0.0
 20
0.0
 30
0.0
  3
overhead
  1

  0
ATTDEF
  5
43
330
42
100
AcDbEntity
  8
ASHADE
  6
Continuous
 62
     1
100
AcDbText
 10
0.0
 20
-0.1
 30
0.0
 40
0.2
  1

  7
ASHADE
 72
     1
 11
0.0
 21
-0.1
 31
0.0
100
AcDbAttributeDefinition
280
     0
  3
Light Name
  2
SNAME
 70
     0
280
     0
  0
ARC
  5
44
330
42
100
AcDbEntity
  8
ASHADE
  6
Continuous
 62
     7
100
AcDbCircle
 10
0.0
 20
0.0
 30
0.0
 40
0.3
100
AcDbArc
 50
205.6792886194569
 51
334.3207113805431
  0
LINE
  5
45
330
42
100
AcDbEntity
  8
ASHADE
  6
Continuous
 62
     7
100
AcDbLine
 10
-0.2041413561583015
 20
-0.2198324514393848
 30
0.0
 11
-0.2721884748777353
 21
-0.2931099352525131
 31
0.0
  0
LINE
  5
46
330
42
100
AcDbEntity
  8
ASHADE
  6
Continuous
 62
     7
100
AcDbLine
 10
-0.1096591641591904
 20
-0.2792398032442862
 30
0.0
 11
-0.1279356915190555
 21
-0.3257797704516673
 31
0.0
  0
LINE
  5
47
330
42
100
AcDbEntity
  8
ASHADE
  6
Continuous
 62
     7
100
AcDbLine
 10
0.0
 20
-0.2999999999999999
 30
0.0
 11
0.0
 21
-0.4
 31
0.0
  0
LINE
  5
48
330
42
100
AcDbEntity
  8
ASHADE
  6
Continuous
 62
     7
100
AcDbLine
 10
0.1096591641591904
 20
-0.2792398032442862
 30
0.0
 11
0.1279356915190555
 21
-0.3257797704516673
 31
0.0
  0
LINE
  5
49
330
42
100
AcDbEntity
  8
ASHADE
  6
Continuous
 62
     7
100
AcDbLine
 10
0.2041413561583015
 20
-0.2198324514393848
 30
0.0
 11
0.2721884748777353
 21
-0.2931099352525131
 31
0.0
  0
ARC
  5
4A
330
42
100
AcDbEntity
  8
ASHADE
  6
Continuous
 62
     7
100
AcDbCircle
 10
0.0
 20
0.0
 30
0.0
 40
0.3
100
AcDbArc
 50
25.67928861945685
 51
154.3207113805431
  0
LINE
  5
4B
330
42
100
AcDbEntity
  8
ASHADE
  6
Continuous
 62
     7
100
AcDbLine
 10
-0.2703701166919155
 20
0.13
 30
0.0
 11
-0.3154318028072347
 21
0.1516666666666666
 31
0.0
  0
LINE
  5
4C
330
42
100
AcDbEntity
  8
ASHADE
  6
Continuous
 62
     7
100
AcDbLine
 10
-0.2703701166919155
 20
-0.13
 30
0.0
 11
-0.3154318028072347
 21
-0.1516666666666666
 31
0.0
  0
LINE
  5
4D
330
42
100
AcDbEntity
  8
ASHADE
  6
Continuous
 62
     7
100
AcDbLine
 10
-0.2041413561583015
 20
0.2198324514393849
 30
0.0
 11
-0.2721884748777353
 21
0.2931099352525131
 31
0.0
  0
LINE
  5
4E
330
42
100
AcDbEntity
  8
ASHADE
  6
Continuous
 62
     7
100
AcDbLine
 10
-0.1096591641591904
 20
0.2792398032442862
 30
0.0
 11
-0.1279356915190555
 21
0.3257797704516674
 31
0.0
  0
LINE
  5
4F
330
42
100
AcDbEntity
  8
ASHADE
  6
Continuous
 62
     7
100
AcDbLine
 10
0.2703701166919155
 20
-0.13
 30
0.0
 11
0.3154318028072347
 21
-0.1516666666666666
 31
0.0
  0
LINE
  5
50
330
42
100
AcDbEntity
  8
ASHADE
  6
Continuous
 62
     7
100
AcDbLine
 10
0.2703701166919155
 20
0.13
 30
0.0
 11
0.3154318028072347
 21
0.1516666666666666
 31
0.0
  0
LINE
  5
51
330
42
100
AcDbEntity
  8
ASHADE
  6
Continuous
 62
     7
100
AcDbLine
 10
0.0
 20
0.3
 30
0.0
 11
0.0
 21
0.4
 31
0.0
  0
ATTDEF
  5
52
330
42
100
AcDbEntity
  8
ASHADE
  6
Continuous
 62
     7
100
AcDbText
 10
0.0
 20
0.22
 30
0.0
 40
0.01
  1
1
100
AcDbAttributeDefinition
280
     0
  3
Light Intensity
  2
INTENSITY
 70
     1
280
     0
  0
ATTDEF
  5
53
330
42
100
AcDbEntity
  8
ASHADE
  6
Continuous
 62
     7
100
AcDbText
 10
0.0
 20
0.16
 30
0.0
 40
0.01
  1
-1
100
AcDbAttributeDefinition
280
     0
  3
*not used*
  2
BEAMD
 70
     1
280
     0
  0
ATTDEF
  5
54
330
42
100
AcDbEntity
  8
ASHADE
  6
Continuous
 62
     7
100
AcDbText
 10
0.0
 20
0.175
 30
0.0
 40
0.01
  1
-1
100
AcDbAttributeDefinition
280
     0
  3
*not used*
  2
CONED
 70
     1
280
     0
  0
ATTDEF
  5
55
330
42
100
AcDbEntity
  8
ASHADE
  6
Continuous
 62
     7
100
AcDbText
 10
0.0
 20
0.19
 30
0.0
 40
0.01
  1
0
100
AcDbAttributeDefinition
280
     0
  3
Depth Map Size
  2
CONEA
 70
     1
280
     0
  0
ATTDEF
  5
56
330
42
100
AcDbEntity
  8
ASHADE
  6
Continuous
 62
     7
100
AcDbText
 10
0.0
 20
0.2050000000000001
 30
0.0
 40
0.01
  1
1,1,1
100
AcDbAttributeDefinition
280
     0
  3
Light Color (RGB)
  2
COLOR
 70
     1
280
     0
  0
ATTDEF
  5
57
330
42
100
AcDbEntity
  8
ASHADE
  6
Continuous
 62
     7
100
AcDbText
 10
0.0
 20
0.235
 30
0.0
 40
0.01
  1

100
AcDbAttributeDefinition
280
     0
  3
Look-at Z
  2
LAZ
 70
     1
280
     0
  0
ATTDEF
  5
58
330
42
100
AcDbEntity
  8
ASHADE
  6
Continuous
 62
     7
100
AcDbText
 10
0.0
 20
0.25
 30
0.0
 40
0.01
  1

100
AcDbAttributeDefinition
280
     0
  3
Look-at Y
  2
LAY
 70
     1
280
     0
  0
ATTDEF
  5
59
330
42
100
AcDbEntity
  8
ASHADE
  6
Continuous
 62
     7
100
AcDbText
 10
0.0
 20
0.265
 30
0.0
 40
0.01
  1

100
AcDbAttributeDefinition
280
     0
  3
Look-at X
  2
LAX
 70
     1
280
     0
  0
ATTDEF
  5
5A
330
42
100
AcDbEntity
  8
ASHADE
  6
Continuous
 62
     7
100
AcDbText
 10
0.0
 20
0.28
 30
0.0
 40
0.01
  1

100
AcDbAttributeDefinition
280
     0
  3

  2
GNAME
 70
     1
280
     0
  0
LINE
  5
5B
330
42
100
AcDbEntity
  8
ASHADE
  6
Continuous
 62
     7
100
AcDbLine
 10
0.1096591641591904
 20
0.2792398032442862
 30
0.0
 11
0.1279356915190555
 21
0.3257797704516674
 31
0.0
  0
LINE
  5
5C
330
42
100
AcDbEntity
  8
ASHADE
  6
Continuous
 62
     7
100
AcDbLine
 10
0.2041413561583015
 20
0.2198324514393849
 30
0.0
 11
0.2721884748777353
 21
0.2931099352525131
 31
0.0
  0
ENDBLK
  5
5E
330
42
100
AcDbEntity
  8
0
100
AcDbBlockEnd
  0
BLOCK
  5
85
330
5F
100
AcDbEntity
  8
0
100
AcDbBlockBegin
  2
sh_spot
 70
     2
 10
0.0
 20
0.0
 30
0.0
  3
sh_spot
  1

  0
LINE
  5
60
330
5F
100
AcDbEntity
  8
ASHADE
  6
Continuous
 62
     7
100
AcDbLine
 10
0.25
 20
0.26
 30
0.0
 11
-0.25
 21
0.26
 31
0.0
  0
LINE
  5
61
330
5F
100
AcDbEntity
  8
ASHADE
  6
Continuous
 62
     7
100
AcDbLine
 10
-0.25
 20
-0.3399999999999999
 30
0.0
 11
0.25
 21
-0.3399999999999999
 31
0.0
  0
ATTDEF
  5
62
330
5F
100
AcDbEntity
  8
ASHADE
  6
Continuous
 62
     1
100
AcDbText
 10
0.0
 20
-0.1
 30
0.0
 40
0.2
  1

  7
ASHADE
 72
     1
 11
0.0
 21
-0.1
 31
0.0
100
AcDbAttributeDefinition
280
     0
  3
Light Name
  2
SNAME
 70
     0
280
     0
  0
LINE
  5
63
330
5F
100
AcDbEntity
  8
ASHADE
  6
Continuous
 62
     7
100
AcDbLine
 10
-0.25
 20
-0.13
 30
0.0
 11
-0.25
 21
-0.3399999999999999
 31
0.0
  0
LINE
  5
64
330
5F
100
AcDbEntity
  8
ASHADE
  6
Continuous
 62
     7
100
AcDbLine
 10
-0.25
 20
-0.18
 30
0.0
 11
-0.29
 21
-0.18
 31
0.0
  0
LINE
  5
65
330
5F
100
AcDbEntity
  8
ASHADE
  6
Continuous
 62
     7
100
AcDbLine
 10
-0.29
 20
-0.22
 30
0.0
 11
-0.25
 21
-0.22
 31
0.0
  0
LINE
  5
66
330
5F
100
AcDbEntity
  8
ASHADE
  6
Continuous
 62
     7
100
AcDbLine
 10
-0.29
 20
-0.18
 30
0.0
 11
-0.29
 21
-0.22
 31
0.0
  0
LINE
  5
67
330
5F
100
AcDbEntity
  8
ASHADE
  6
Continuous
 62
     7
100
AcDbLine
 10
-0.1045454545454545
 20
0.26
 30
0.0
 11
-0.15
 21
0.46
 31
0.0
  0
LINE
  5
68
330
5F
100
AcDbEntity
  8
ASHADE
  6
Continuous
 62
     7
100
AcDbLine
 10
-0.21
 20
0.26
 30
0.0
 11
-0.301304347826087
 21
0.46
 31
0.0
  0
LINE
  5
69
330
5F
100
AcDbEntity
  8
ASHADE
  6
Continuous
 62
     7
100
AcDbLine
 10
-0.25
 20
0.26
 30
0.0
 11
-0.25
 21
0.13
 31
0.0
  0
LINE
  5
6A
330
5F
100
AcDbEntity
  8
ASHADE
  6
Continuous
 62
     7
100
AcDbLine
 10
-0.25
 20
0.22
 30
0.0
 11
-0.29
 21
0.22
 31
0.0
  0
LINE
  5
6B
330
5F
100
AcDbEntity
  8
ASHADE
  6
Continuous
 62
     7
100
AcDbLine
 10
-0.29
 20
0.1799999999999999
 30
0.0
 11
-0.25
 21
0.1799999999999999
 31
0.0
  0
LINE
  5
6C
330
5F
100
AcDbEntity
  8
ASHADE
  6
Continuous
 62
     7
100
AcDbLine
 10
-0.29
 20
0.22
 30
0.0
 11
-0.29
 21
0.1799999999999999
 31
0.0
  0
ATTDEF
  5
6D
330
5F
100
AcDbEntity
  8
ASHADE
  6
Continuous
 62
     7
100
AcDbText
 10
0.0
 20
-0.24
 30
0.0
 40
0.01
  1
0
100
AcDbAttributeDefinition
280
     0
  3
Depth Map Size
  2
ZSIZE
 70
     1
280
     0
  0
ATTDEF
  5
6E
330
5F
100
AcDbEntity
  8
ASHADE
  6
Continuous
 62
     7
100
AcDbText
 10
0.0
 20
-0.3300000000000001
 30
0.0
 40
0.01
  1
0,0,0
100
AcDbAttributeDefinition
280
     0
  3
Look-from XYZ
  2
LFXYZ
 70
     1
280
     0
  0
ATTDEF
  5
6F
330
5F
100
AcDbEntity
  8
ASHADE
  6
Continuous
 62
     7
100
AcDbText
 10
0.0
 20
-0.315
 30
0.0
 40
0.01
  1
0.0
100
AcDbAttributeDefinition
280
     0
  3
Beam Distribution
  2
BEAMDI
 70
     1
280
     0
  0
ATTDEF
  5
70
330
5F
100
AcDbEntity
  8
ASHADE
  6
Continuous
 62
     7
100
AcDbText
 10
0.0
 20
-0.3
 30
0.0
 40
0.01
  1
0.0
100
AcDbAttributeDefinition
280
     0
  3
Cone Delta
  2
CONEDE
 70
     1
280
     0
  0
ATTDEF
  5
71
330
5F
100
AcDbEntity
  8
ASHADE
  6
Continuous
 62
     7
100
AcDbText
 10
0.0
 20
-0.2850000000000001
 30
0.0
 40
0.01
  1
10.0
100
AcDbAttributeDefinition
280
     0
  3
Cone Angle
  2
CONEAN
 70
     1
280
     0
  0
ATTDEF
  5
72
330
5F
100
AcDbEntity
  8
ASHADE
  6
Continuous
 62
     7
100
AcDbText
 10
0.0
 20
-0.27
 30
0.0
 40
0.01
  1
-1
100
AcDbAttributeDefinition
280
     0
  3
*not used*
  2
BIASMAX
 70
     1
280
     0
  0
ATTDEF
  5
73
330
5F
100
AcDbEntity
  8
ASHADE
  6
Continuous
 62
     7
100
AcDbText
 10
0.0
 20
-0.255
 30
0.0
 40
0.01
  1
-1
100
AcDbAttributeDefinition
280
     0
  3
*not used*
  2
BIASMIN
 70
     1
280
     0
  0
ATTDEF
  5
74
330
5F
100
AcDbEntity
  8
ASHADE
  6
Continuous
 62
     7
100
AcDbText
 10
0.0
 20
-0.225
 30
0.0
 40
0.01
  1
1,1,1
100
AcDbAttributeDefinition
280
     0
  3
Light Color (RGB)
  2
COLOR
 70
     1
280
     0
  0
ATTDEF
  5
75
330
5F
100
AcDbEntity
  8
ASHADE
  6
Continuous
 62
     7
100
AcDbText
 10
0.0
 20
-0.21
 30
0.0
 40
0.01
  1
1
100
AcDbAttributeDefinition
280
     0
  3
Light Intensity
  2
INTENSITY
 70
     1
280
     0
  0
ATTDEF
  5
76
330
5F
100
AcDbEntity
  8
ASHADE
  6
Continuous
 62
     7
100
AcDbText
 10
0.0
 20
-0.15
 30
0.0
 40
0.01
  1

100
AcDbAttributeDefinition
280
     0
  3

  2
GNAME
 70
     1
280
     0
  0
ATTDEF
  5
77
330
5F
100
AcDbEntity
  8
ASHADE
  6
Continuous
 62
     7
100
AcDbText
 10
0.0
 20
-0.195
 30
0.0
 40
0.01
  1

100
AcDbAttributeDefinition
280
     0
  3
Look-at Z
  2
LAZ
 70
     1
280
     0
  0
ATTDEF
  5
78
330
5F
100
AcDbEntity
  8
ASHADE
  6
Continuous
 62
     7
100
AcDbText
 10
0.0
 20
-0.18
 30
0.0
 40
0.01
  1

100
AcDbAttributeDefinition
280
     0
  3
Look-at Y
  2
LAY
 70
     1
280
     0
  0
ATTDEF
  5
79
330
5F
100
AcDbEntity
  8
ASHADE
  6
Continuous
 62
     7
100
AcDbText
 10
0.0
 20
-0.165
 30
0.0
 40
0.01
  1

100
AcDbAttributeDefinition
280
     0
  3
Look-at X
  2
LAX
 70
     1
280
     0
  0
LINE
  5
7A
330
5F
100
AcDbEntity
  8
ASHADE
  6
Continuous
 62
     7
100
AcDbLine
 10
0.25
 20
-0.3399999999999999
 30
0.0
 11
0.25
 21
-0.13
 31
0.0
  0
LINE
  5
7B
330
5F
100
AcDbEntity
  8
ASHADE
  6
Continuous
 62
     7
100
AcDbLine
 10
0.25
 20
-0.18
 30
0.0
 11
0.29
 21
-0.18
 31
0.0
  0
LINE
  5
7C
330
5F
100
AcDbEntity
  8
ASHADE
  6
Continuous
 62
     7
100
AcDbLine
 10
0.29
 20
-0.22
 30
0.0
 11
0.25
 21
-0.22
 31
0.0
  0
LINE
  5
7D
330
5F
100
AcDbEntity
  8
ASHADE
  6
Continuous
 62
     7
100
AcDbLine
 10
0.29
 20
-0.18
 30
0.0
 11
0.29
 21
-0.22
 31
0.0
  0
LINE
  5
7E
330
5F
100
AcDbEntity
  8
ASHADE
  6
Continuous
 62
     7
100
AcDbLine
 10
0.21
 20
0.26
 30
0.0
 11
0.301304347826087
 21
0.46
 31
0.0
  0
LINE
  5
7F
330
5F
100
AcDbEntity
  8
ASHADE
  6
Continuous
 62
     7
100
AcDbLine
 10
0.1045454545454545
 20
0.26
 30
0.0
 11
0.15
 21
0.46
 31
0.0
  0
LINE
  5
80
330
5F
100
AcDbEntity
  8
ASHADE
  6
Continuous
 62
     7
100
AcDbLine
 10
0.0
 20
0.26
 30
0.0
 11
0.0
 21
0.46
 31
0.0
  0
LINE
  5
81
330
5F
100
AcDbEntity
  8
ASHADE
  6
Continuous
 62
     7
100
AcDbLine
 10
0.25
 20
0.13
 30
0.0
 11
0.25
 21
0.26
 31
0.0
  0
LINE
  5
82
330
5F
100
AcDbEntity
  8
ASHADE
  6
Continuous
 62
     7
100
AcDbLine
 10
0.25
 20
0.22
 30
0.0
 11
0.29
 21
0.22
 31
0.0
  0
LINE
  5
83
330
5F
100
AcDbEntity
  8
ASHADE
  6
Continuous
 62
     7
100
AcDbLine
 10
0.29
 20
0.1799999999999999
 30
0.0
 11
0.25
 21
0.1799999999999999
 31
0.0
  0
LINE
  5
84
330
5F
100
AcDbEntity
  8
ASHADE
  6
Continuous
 62
     7
100
AcDbLine
 10
0.29
 20
0.22
 30
0.0
 11
0.29
 21
0.1799999999999999
 31
0.0
  0
ENDBLK
  5
86
330
5F
100
AcDbEntity
  8
0
100
AcDbBlockEnd
  0
BLOCK
  5
92
330
91
100
AcDbEntity
  8
ASHADE
100
AcDbBlockBegin
  2
AVE_RENDER
 70
     0
 10
0.0
 20
0.0
 30
0.0
  3
AVE_RENDER
  1
AVE_RENDER
  0
ENDBLK
  5
93
330
91
100
AcDbEntity
  8
0
100
AcDbBlockEnd
  0
BLOCK
  5
A0
330
9F
100
AcDbEntity
  8
ASHADE
100
AcDbBlockBegin
  2
AVE_GLOBAL
 70
     0
 10
0.0
 20
0.0
 30
0.0
  3
AVE_GLOBAL
  1
AVE_GLOBAL
  0
ENDBLK
  5
A1
330
9F
100
AcDbEntity
  8
0
100
AcDbBlockEnd
  0
ENDSEC
  0
SECTION
  2
ENTITIES
  0
INSERT
  5
94
330
1F
100
AcDbEntity
  8
ASHADE
 62
     1
100
AcDbBlockReference
  2
AVE_RENDER
 10
0.0
 20
0.0
 30
0.0
1001
AVE_RENDER
1002
{
1070
     7
1000
Pref
1070
    30
1070
    20
1070
     1
1070
     0
1000

1070
    10
1070
     1
1070
    10
1040
1.0
1070
     1
1040
0.3
1040
0.7
1040
0.0
1040
10.0
1010
-1.0
1020
-1.0
1030
-1.0
1040
0.3
1070
    49
1070
     0
1070
     0
1010
1.0
1020
1.0
1030
1.0
1040
45.0
1070
     1
1070
     0
1000
WCS
1040
0.0
1070
     0
1040
10.0
1002
}
  0
INSERT
  5
95
330
1F
100
AcDbEntity
  8
ASHADE
 62
     3
100
AcDbBlockReference
  2
AVE_RENDER
 10
0.0
 20
0.0
 30
0.0
1001
AVE_RENDER
1002
{
1070
     0
1000
Full Opt
1070
     0
1070
     1
1070
     1
1070
     1
1070
     0
1070
     0
1070
     0
1070
     1
1070
     1
1040
0.0001
1040
0.0001
1002
}
  0
INSERT
  5
96
330
1F
100
AcDbEntity
  8
ASHADE
 62
     4
100
AcDbBlockReference
  2
AVE_RENDER
 10
0.0
 20
0.0
 30
0.0
1001
AVE_RENDER
1002
{
1070
     0
1000
Quick Opt
1070
     0
1070
     1
1070
     1
1070
     1
1070
     0
1070
     0
1070
     1
1002
}
  0
INSERT
  5
97
330
1F
100
AcDbEntity
  8
ASHADE
 62
     5
100
AcDbBlockReference
  2
AVE_RENDER
 10
0.0
 20
0.0
 30
0.0
1001
AVE_RENDER
1002
{
1070
     1
1000
Scanl Opt
1070
     2
1070
     0
1070
     2
1040
2.0
1040
4.0
1070
     0
1070
     1
1070
     0
1040
0.03
1002
}
  0
INSERT
  5
98
330
1F
100
AcDbEntity
  8
ASHADE
 62
     6
100
AcDbBlockReference
  2
AVE_RENDER
 10
0.0
 20
0.0
 30
0.0
1001
AVE_RENDER
1002
{
1070
     2
1000
Raytr Opt
1070
     2
1070
     0
1070
     2
1040
2.0
1040
4.0
1070
     0
1070
     1
1070
     1
1040
0.03
1070
     3
1040
0.03
1002
}
  0
INSERT
  5
99
330
1F
100
AcDbEntity
  8
ASHADE
 62
     7
100
AcDbBlockReference
  2
AVE_RENDER
 10
0.0
 20
0.0
 30
0.0
1001
AVE_RENDER
1002
{
1070
     0
1000
RFile Opt
1070
     1
1070
   640
1070
   480
1070
 10000
1070
     1
1070
     8
1070
     8
1070
     0
1070
     0
1070
     0
1070
     0
1070
     0
1070
     0
1070
     0
1002
}
  0
INSERT
  5
9A
330
1F
100
AcDbEntity
  8
ASHADE
 62
     8
100
AcDbBlockReference
  2
AVE_RENDER
 10
0.0
 20
0.0
 30
0.0
1001
AVE_RENDER
1002
{
1070
     0
1000
Fog Opt
1070
     0
1070
     0
1040
0.0
1040
1.0
1040
0.0
1040
1.0
1010
0.5
1020
0.5
1030
0.5
1002
}
  0
INSERT
  5
9B
330
1F
100
AcDbEntity
  8
ASHADE
 62
     9
100
AcDbBlockReference
  2
AVE_RENDER
 10
0.0
 20
0.0
 30
0.0
1001
AVE_RENDER
1002
{
1070
     0
1000
BG Opt
1070
     0
1070
     1
1010
0.0
1020
0.0
1030
0.0
1010
1.0
1020
0.0
1030
0.0
1010
0.0
1020
1.0
1030
0.0
1010
0.0
1020
0.0
1030
1.0
1040
0.5
1040
0.33
1040
0.0
1000

1070
     1
1000

1070
     1
1070
     1
1040
1.0
1040
1.0
1040
0.0
1040
0.0
1070
     0
1002
}
  0
INSERT
  5
A2
330
1F
100
AcDbEntity
  8
ASHADE
 62
     1
100
AcDbBlockReference
  2
AVE_GLOBAL
 10
0.0
 20
0.0
 30
0.0
1001
AVE_MATERIAL
1002
{
1000
*GLOBAL*
1000
2
1000
Global finish.
1002
{
1002
}
1002
{
1070
    63
1002
{
1002
{
1010
-1.0
1020
-1.0
1030
-1.0
1002
}
1040
0.1000000014901161
1000

1040
0.0
1002
{
1002
}
1040
0.0
1002
{
1002
}
1040
0.0
1002
}
1002
{
1002
{
1010
-1.0
1020
-1.0
1030
-1.0
1002
}
1040
0.6999999880790711
1000

1040
0.0
1002
{
1002
}
1040
0.0
1002
{
1002
}
1040
0.0
1002
}
1002
{
1002
{
1010
-1.0
1020
-1.0
1030
-1.0
1002
}
1040
0.2000000029802322
1000

1040
0.0
1002
{
1002
}
1040
0.0
1002
{
1002
}
1040
0.0
1002
}
1002
{
1070
     0
1002
{
1070
     1
1002
{
1040
1.0
1040
1.0
1000

1040
0.0
1002
{
1002
}
1040
0.0
1002
{
1002
}
1040
0.0
1002
}
1002
}
1040
1.0
1040
0.0
1040
0.0
1002
}
1002
{
1040
1.0
1040
1.0
1000

1040
0.0
1002
{
1002
}
1040
0.0
1002
{
1002
}
1040
0.0
1002
}
1002
{
1040
0.5
1040
1.0
1000

1040
0.0
1002
{
1002
}
1040
0.0
1002
{
1002
}
1040
0.0
1002
}
1002
{
1070
     0
1040
0.0
1002
{
1002
}
1040
1.0
1002
{
1002
}
1040
0.0
1002
}
1002
{
1040
0.0
1002
{
1002
{
1010
0.0
1020
0.0
1030
0.0
1002
}
1040
1.0
1000

1040
0.0
1002
{
1002
}
1040
0.0
1002
{
1002
}
1040
0.0
1002
}
1002
}
1002
{
1002
{
1070
     1
1002
{
1040
0.0
1040
1.0
1000

1040
0.0
1002
{
1002
}
1040
0.0
1002
{
1002
}
1040
0.0
1002
}
1002
}
1040
0.0
1002
{
1002
}
1010
1.0
1020
0.0
1030
0.0
1010
0.0
1020
1.0
1030
0.0
1010
0.0
1020
0.0
1030
1.0
1070
     0
1002
}
1002
{
1002
{
1040
1.0
1040
1.0
1002
{
1070
     1
1002
{
1040
1.0
1040
1.0
1000

1040
0.0
1002
{
1002
}
1040
0.0
1002
{
1002
}
1040
0.0
1002
}
1002
}
1002
}
1070
     0
1040
0.0
1002
{
1002
}
1002
}
1002
{
1002
}
1002
}
1002
{
1071
        3
1070
     3
1070
     0
1002
{
1070
     2
1070
     0
1070
     0
1040
0.0
1002
}
1070
     0
1070
     2
1002
{
1002
}
1002
}
1002
{
1040
8030.0
1040
190.3000030517578
1040
0.3050000071525574
1040
228.0
1040
545.0
1040
14.0
1040
17.39999961853027
1040
0.4560000002384186
1002
}
1002
}
  0
POLYLINE
  5
F8
330
1F
100
AcDbEntity
  8
0
 62
   233
420
 14768015
100
AcDb3dPolyline
 66
     1
 10
0.0
 20
0.0
 30
0.0
 70
     8
  0
VERTEX
  5
F9
330
F8
100
AcDbEntity
  8
0
 62
   233
420
 14768015
100
AcDbVertex
100
AcDb3dPolylineVertex
 10
-170.4887542724609
 20
-80.20050048828125
 30
-86.79953765869141
 70
    32
  0
VERTEX
  5
FA
330
F8
100
AcDbEntity
  8
0
 62
   233
420
 14768015
100
AcDbVertex
100
AcDb3dPolylineVertex
 10
-170.4887542724609
 20
-81.85441589355468
 30
-82.96788787841796
 70
    32
  0
SEQEND
  5
149
330
F8
100
AcDbEntity
  8
0
 62
   233
420
 14768015
  0
POLYLINE
  5
FB
330
1F
100
AcDbEntity
  8
0
 62
   233
420
 14768015
100
AcDb3dPolyline
 66
     1
 10
0.0
 20
0.0
 30
0.0
 70
     8
  0
VERTEX
  5
FC
330
FB
100
AcDbEntity
  8
0
 62
   233
420
 14768015
100
AcDbVertex
100
AcDb3dPolylineVertex
 10
-170.4887542724609
 20
-81.85441589355468
 30
-82.96788787841796
 70
    32
  0
VERTEX
  5
FD
330
FB
100
AcDbEntity
  8
0
 62
   233
420
 14768015
100
AcDbVertex
100
AcDb3dPolylineVertex
 10
-170.4887542724609
 20
-81.96713256835938
 30
-82.70676422119141
 70
    32
  0
SEQEND
  5
14A
330
FB
100
AcDbEntity
  8
0
 62
   233
420
 14768015
  0
POLYLINE
  5
FE
330
1F
100
AcDbEntity
  8
0
 62
   233
420
 14768015
100
AcDb3dPolyline
 66
     1
 10
0.0
 20
0.0
 30
0.0
 70
     8
  0
VERTEX
  5
FF
330
FE
100
AcDbEntity
  8
0
 62
   233
420
 14768015
100
AcDbVertex
100
AcDb3dPolylineVertex
 10
-170.4887542724609
 20
-80.20050048828125
 30
-78.614013671875
 70
    32
  0
VERTEX
  5
100
330
FE
100
AcDbEntity
  8
0
 62
   233
420
 14768015
100
AcDbVertex
100
AcDb3dPolylineVertex
 10
-170.4887542724609
 20
-81.96713256835938
 30
-82.70676422119141
 70
    32
  0
SEQEND
  5
14B
330
FE
100
AcDbEntity
  8
0
 62
   233
420
 14768015
  0
POLYLINE
  5
101
330
1F
100
AcDbEntity
  8
0
 62
   233
420
 14768015
100
AcDb3dPolyline
 66
     1
 10
0.0
 20
0.0
 30
0.0
 70
     8
  0
VERTEX
  5
102
330
101
100
AcDbEntity
  8
0
 62
   233
420
 14768015
100
AcDbVertex
100
AcDb3dPolylineVertex
 10
-170.4887542724609
 20
-40.10024261474609
 30
-115.2675399780273
 70
    32
  0
VERTEX
  5
103
330
101
100
AcDbEntity
  8
0
 62
   233
420
 14768015
100
AcDbVertex
100
AcDb3dPolylineVertex
 10
-170.4887542724609
 20
-55.27565002441406
 30
-107.7294387817383
 70
    32
  0
SEQEND
  5
14C
330
101
100
AcDbEntity
  8
0
 62
   233
420
 14768015
  0
POLYLINE
  5
104
330
1F
100
AcDbEntity
  8
0
 62
   233
420
 14768015
100
AcDb3dPolyline
 66
     1
 10
0.0
 20
0.0
 30
0.0
 70
     8
  0
VERTEX
  5
105
330
104
100
AcDbEntity
  8
0
 62
   233
420
 14768015
100
AcDbVertex
100
AcDb3dPolylineVertex
 10
-170.4887542724609
 20
-55.27565002441406
 30
-107.7294387817383
 70
    32
  0
VERTEX
  5
106
330
104
100
AcDbEntity
  8
0
 62
   233
420
 14768015
100
AcDbVertex
100
AcDb3dPolylineVertex
 10
-170.4887542724609
 20
-63.62985229492188
 30
-103.5796432495117
 70
    32
  0
SEQEND
  5
14D
330
104
100
AcDbEntity
  8
0
 62
   233
420
 14768015
  0
POLYLINE
  5
107
330
1F
100
AcDbEntity
  8
0
 62
   233
420
 14768015
100
AcDb3dPolyline
 66
     1
 10
0.0
 20
0.0
 30
0.0
 70
     8
  0
VERTEX
  5
108
330
107
100
AcDbEntity
  8
0
 62
   233
420
 14768015
100
AcDbVertex
100
AcDb3dPolylineVertex
 10
-170.4887542724609
 20
-68.86176300048828
 30
-99.44546508789063
 70
    32
  0
VERTEX
  5
109
330
107
100
AcDbEntity
  8
0
 62
   233
420
 14768015
100
AcDbVertex
100
AcDb3dPolylineVertex
 10
-170.4887542724609
 20
-63.62985229492188
 30
-103.5796432495117
 70
    32
  0
SEQEND
  5
14E
330
107
100
AcDbEntity
  8
0
 62
   233
420
 14768015
  0
POLYLINE
  5
10A
330
1F
100
AcDbEntity
  8
0
 62
   233
420
 14768015
100
AcDb3dPolyline
 66
     1
 10
0.0
 20
0.0
 30
0.0
 70
     8
  0
VERTEX
  5
10B
330
10A
100
AcDbEntity
  8
0
 62
   233
420
 14768015
100
AcDbVertex
100
AcDb3dPolylineVertex
 10
-170.4887542724609
 20
-68.86176300048828
 30
-99.44546508789063
 70
    32
  0
VERTEX
  5
10C
330
10A
100
AcDbEntity
  8
0
 62
   233
420
 14768015
100
AcDbVertex
100
AcDb3dPolylineVertex
 10
-170.4887542724609
 20
-77.78571319580078
 30
-92.3938980102539
 70
    32
  0
SEQEND
  5
14F
330
10A
100
AcDbEntity
  8
0
 62
   233
420
 14768015
  0
POLYLINE
  5
10D
330
1F
100
AcDbEntity
  8
0
 62
   233
420
 14768015
100
AcDb3dPolyline
 66
     1
 10
0.0
 20
0.0
 30
0.0
 70
     8
  0
VERTEX
  5
10E
330
10D
100
AcDbEntity
  8
0
 62
   233
420
 14768015
100
AcDbVertex
100
AcDb3dPolylineVertex
 10
-170.4887542724609
 20
-78.08432006835937
 30
-91.70212554931641
 70
    32
  0
VERTEX
  5
10F
330
10D
100
AcDbEntity
  8
0
 62
   233
420
 14768015
100
AcDbVertex
100
AcDb3dPolylineVertex
 10
-170.4887542724609
 20
-77.78571319580078
 30
-92.3938980102539
 70
    32
  0
SEQEND
  5
150
330
10D
100
AcDbEntity
  8
0
 62
   233
420
 14768015
  0
POLYLINE
  5
110
330
1F
100
AcDbEntity
  8
0
 62
   233
420
 14768015
100
AcDb3dPolyline
 66
     1
 10
0.0
 20
0.0
 30
0.0
 70
     8
  0
VERTEX
  5
111
330
110
100
AcDbEntity
  8
0
 62
   233
420
 14768015
100
AcDbVertex
100
AcDb3dPolylineVertex
 10
-170.4887542724609
 20
-78.08432006835937
 30
-91.70212554931641
 70
    32
  0
VERTEX
  5
112
330
110
100
AcDbEntity
  8
0
 62
   233
420
 14768015
100
AcDbVertex
100
AcDb3dPolylineVertex
 10
-170.4887542724609
 20
-80.20050048828125
 30
-86.79953765869141
 70
    32
  0
SEQEND
  5
151
330
110
100
AcDbEntity
  8
0
 62
   233
420
 14768015
  0
POLYLINE
  5
113
330
1F
100
AcDbEntity
  8
0
 62
   233
420
 14768015
100
AcDb3dPolyline
 66
     1
 10
0.0
 20
0.0
 30
0.0
 70
     8
  0
VERTEX
  5
114
330
113
100
AcDbEntity
  8
0
 62
   233
420
 14768015
100
AcDbVertex
100
AcDb3dPolylineVertex
 10
-170.4887542724609
 20
-77.78569030761719
 30
-73.01961517333984
 70
    32
  0
VERTEX
  5
115
330
113
100
AcDbEntity
  8
0
 62
   233
420
 14768015
100
AcDbVertex
100
AcDb3dPolylineVertex
 10
-170.4887542724609
 20
-80.20050048828125
 30
-78.614013671875
 70
    32
  0
SEQEND
  5
152
330
113
100
AcDbEntity
  8
0
 62
   233
420
 14768015
  0
POLYLINE
  5
116
330
1F
100
AcDbEntity
  8
0
 62
   233
420
 14768015
100
AcDb3dPolyline
 66
     1
 10
0.0
 20
0.0
 30
0.0
 70
     8
  0
VERTEX
  5
117
330
116
100
AcDbEntity
  8
0
 62
   233
420
 14768015
100
AcDbVertex
100
AcDb3dPolylineVertex
 10
-170.4887542724609
 20
-76.081787109375
 30
-71.6732177734375
 70
    32
  0
VERTEX
  5
118
330
116
100
AcDbEntity
  8
0
 62
   233
420
 14768015
100
AcDbVertex
100
AcDb3dPolylineVertex
 10
-170.4887542724609
 20
-77.78569030761719
 30
-73.01961517333984
 70
    32
  0
SEQEND
  5
153
330
116
100
AcDbEntity
  8
0
 62
   233
420
 14768015
  0
POLYLINE
  5
119
330
1F
100
AcDbEntity
  8
0
 62
   233
420
 14768015
100
AcDb3dPolyline
 66
     1
 10
0.0
 20
0.0
 30
0.0
 70
     8
  0
VERTEX
  5
11A
330
119
100
AcDbEntity
  8
0
 62
   233
420
 14768015
100
AcDbVertex
100
AcDb3dPolylineVertex
 10
-170.4887542724609
 20
-76.081787109375
 30
-71.6732177734375
 70
    32
  0
VERTEX
  5
11B
330
119
100
AcDbEntity
  8
0
 62
   233
420
 14768015
100
AcDbVertex
100
AcDb3dPolylineVertex
 10
-170.4887390136718
 20
-63.62983703613281
 30
-61.83386993408203
 70
    32
  0
SEQEND
  5
154
330
119
100
AcDbEntity
  8
0
 62
   233
420
 14768015
  0
POLYLINE
  5
11C
330
1F
100
AcDbEntity
  8
0
 62
   233
420
 14768015
100
AcDb3dPolyline
 66
     1
 10
0.0
 20
0.0
 30
0.0
 70
     8
  0
VERTEX
  5
11D
330
11C
100
AcDbEntity
  8
0
 62
   233
420
 14768015
100
AcDbVertex
100
AcDb3dPolylineVertex
 10
-170.4887390136718
 20
-40.10025405883789
 30
-50.14599609375
 70
    32
  0
VERTEX
  5
11E
330
11C
100
AcDbEntity
  8
0
 62
   233
420
 14768015
100
AcDbVertex
100
AcDb3dPolylineVertex
 10
-170.4887390136718
 20
-63.62983703613281
 30
-61.83386993408203
 70
    32
  0
SEQEND
  5
155
330
11C
100
AcDbEntity
  8
0
 62
   233
420
 14768015
  0
POLYLINE
  5
11F
330
1F
100
AcDbEntity
  8
0
 62
   233
420
 14768015
100
AcDb3dPolyline
 66
     1
 10
0.0
 20
0.0
 30
0.0
 70
     8
  0
VERTEX
  5
120
330
11F
100
AcDbEntity
  8
0
 62
   233
420
 14768015
100
AcDbVertex
100
AcDb3dPolylineVertex
 10
-170.4887390136718
 20
0.0000115463644761
 30
-131.3877258300781
 70
    32
  0
VERTEX
  5
121
330
11F
100
AcDbEntity
  8
0
 62
   233
420
 14768015
100
AcDbVertex
100
AcDb3dPolylineVertex
 10
-170.4887542724609
 20
-15.13592720031738
 30
-125.6185989379883
 70
    32
  0
SEQEND
  5
156
330
11F
100
AcDbEntity
  8
0
 62
   233
420
 14768015
  0
POLYLINE
  5
122
330
1F
100
AcDbEntity
  8
0
 62
   233
420
 14768015
100
AcDb3dPolyline
 66
     1
 10
0.0
 20
0.0
 30
0.0
 70
     8
  0
VERTEX
  5
123
330
122
100
AcDbEntity
  8
0
 62
   233
420
 14768015
100
AcDbVertex
100
AcDb3dPolylineVertex
 10
-170.4887542724609
 20
-15.13592720031738
 30
-125.6185989379883
 70
    32
  0
VERTEX
  5
124
330
122
100
AcDbEntity
  8
0
 62
   233
420
 14768015
100
AcDbVertex
100
AcDb3dPolylineVertex
 10
-170.4887542724609
 20
-32.86878204345703
 30
-118.859634399414
 70
    32
  0
SEQEND
  5
157
330
122
100
AcDbEntity
  8
0
 62
   233
420
 14768015
  0
POLYLINE
  5
125
330
1F
100
AcDbEntity
  8
0
 62
   233
420
 14768015
100
AcDb3dPolyline
 66
     1
 10
0.0
 20
0.0
 30
0.0
 70
     8
  0
VERTEX
  5
126
330
125
100
AcDbEntity
  8
0
 62
   233
420
 14768015
100
AcDbVertex
100
AcDb3dPolylineVertex
 10
-170.4887542724609
 20
-36.69515609741211
 30
-116.9589538574218
 70
    32
  0
VERTEX
  5
127
330
125
100
AcDbEntity
  8
0
 62
   233
420
 14768015
100
AcDbVertex
100
AcDb3dPolylineVertex
 10
-170.4887542724609
 20
-32.86878204345703
 30
-118.859634399414
 70
    32
  0
SEQEND
  5
158
330
125
100
AcDbEntity
  8
0
 62
   233
420
 14768015
  0
POLYLINE
  5
128
330
1F
100
AcDbEntity
  8
0
 62
   233
420
 14768015
100
AcDb3dPolyline
 66
     1
 10
0.0
 20
0.0
 30
0.0
 70
     8
  0
VERTEX
  5
129
330
128
100
AcDbEntity
  8
0
 62
   233
420
 14768015
100
AcDbVertex
100
AcDb3dPolylineVertex
 10
-170.4887542724609
 20
-36.69515609741211
 30
-116.9589538574218
 70
    32
  0
VERTEX
  5
12A
330
128
100
AcDbEntity
  8
0
 62
   233
420
 14768015
100
AcDbVertex
100
AcDb3dPolylineVertex
 10
-170.4887542724609
 20
-40.10024261474609
 30
-115.2675399780273
 70
    32
  0
SEQEND
  5
159
330
128
100
AcDbEntity
  8
0
 62
   233
420
 14768015
  0
POLYLINE
  5
12B
330
1F
100
AcDbEntity
  8
0
 62
   233
420
 14768015
100
AcDb3dPolyline
 66
     1
 10
0.0
 20
0.0
 30
0.0
 70
     8
  0
VERTEX
  5
12C
330
12B
100
AcDbEntity
  8
0
 62
   233
420
 14768015
100
AcDbVertex
100
AcDb3dPolylineVertex
 10
-170.4887390136718
 20
-32.86869049072266
 30
-46.55385208129882
 70
    32
  0
VERTEX
  5
12D
330
12B
100
AcDbEntity
  8
0
 62
   233
420
 14768015
100
AcDbVertex
100
AcDb3dPolylineVertex
 10
-170.4887390136718
 20
-40.10025405883789
 30
-50.14599609375
 70
    32
  0
SEQEND
  5
15A
330
12B
100
AcDbEntity
  8
0
 62
   233
420
 14768015
  0
POLYLINE
  5
12E
330
1F
100
AcDbEntity
  8
0
 62
   233
420
 14768015
100
AcDb3dPolyline
 66
     1
 10
0.0
 20
0.0
 30
0.0
 70
     8
  0
VERTEX
  5
12F
330
12E
100
AcDbEntity
  8
0
 62
   233
420
 14768015
100
AcDbVertex
100
AcDb3dPolylineVertex
 10
-170.4887237548828
 20
-0.0000043159134293
 30
-34.02577209472656
 70
    32
  0
VERTEX
  5
130
330
12E
100
AcDbEntity
  8
0
 62
   233
420
 14768015
100
AcDbVertex
100
AcDb3dPolylineVertex
 10
-170.4887390136718
 20
-32.86869049072266
 30
-46.55385208129882
 70
    32
  0
SEQEND
  5
15B
330
12E
100
AcDbEntity
  8
0
 62
   233
420
 14768015
  0
POLYLINE
  5
131
330
1F
100
AcDbEntity
  8
0
 62
   233
420
 14768015
100
AcDb3dPolyline
 66
     1
 10
0.0
 20
0.0
 30
0.0
 70
     8
  0
VERTEX
  5
132
330
131
100
AcDbEntity
  8
0
 62
   233
420
 14768015
100
AcDbVertex
100
AcDb3dPolylineVertex
 10
-170.4887390136718
 20
0.0000095052746474
 30
-118.859619140625
 70
    32
  0
VERTEX
  5
133
330
131
100
AcDbEntity
  8
0
 62
   233
420
 14768015
100
AcDbVertex
100
AcDb3dPolylineVertex
 10
-170.4887390136718
 20
0.0000115463644761
 30
-131.3877258300781
 70
    32
  0
SEQEND
  5
15C
330
131
100
AcDbEntity
  8
0
 62
   233
420
 14768015
  0
POLYLINE
  5
134
330
1F
100
AcDbEntity
  8
0
 62
   233
420
 14768015
100
AcDb3dPolyline
 66
     1
 10
0.0
 20
0.0
 30
0.0
 70
     8
  0
VERTEX
  5
135
330
134
100
AcDbEntity
  8
0
 62
   233
420
 14768015
100
AcDbVertex
100
AcDb3dPolylineVertex
 10
-170.4887390136718
 20
0.0000095052746474
 30
-118.859619140625
 70
    32
  0
VERTEX
  5
136
330
134
100
AcDbEntity
  8
0
 62
   233
420
 14768015
100
AcDbVertex
100
AcDb3dPolylineVertex
 10
-170.4887390136718
 20
0.0000070158471317
 30
-103.5796203613281
 70
    32
  0
SEQEND
  5
15D
330
134
100
AcDbEntity
  8
0
 62
   233
420
 14768015
  0
POLYLINE
  5
137
330
1F
100
AcDbEntity
  8
0
 62
   233
420
 14768015
100
AcDb3dPolyline
 66
     1
 10
0.0
 20
0.0
 30
0.0
 70
     8
  0
VERTEX
  5
138
330
137
100
AcDbEntity
  8
0
 62
   233
420
 14768015
100
AcDbVertex
100
AcDb3dPolylineVertex
 10
-170.4887390136718
 20
0.0000070158471317
 30
-103.5796203613281
 70
    32
  0
VERTEX
  5
139
330
137
100
AcDbEntity
  8
0
 62
   233
420
 14768015
100
AcDbVertex
100
AcDb3dPolylineVertex
 10
-170.4887390136718
 20
0.0000051934584917
 30
-92.39388275146485
 70
    32
  0
SEQEND
  5
15E
330
137
100
AcDbEntity
  8
0
 62
   233
420
 14768015
  0
POLYLINE
  5
13A
330
1F
100
AcDbEntity
  8
0
 62
   233
420
 14768015
100
AcDb3dPolyline
 66
     1
 10
0.0
 20
0.0
 30
0.0
 70
     8
  0
VERTEX
  5
13B
330
13A
100
AcDbEntity
  8
0
 62
   233
420
 14768015
100
AcDbVertex
100
AcDb3dPolylineVertex
 10
-170.4887390136718
 20
0.0000051934584917
 30
-92.39388275146485
 70
    32
  0
VERTEX
  5
13C
330
13A
100
AcDbEntity
  8
0
 62
   233
420
 14768015
100
AcDbVertex
100
AcDb3dPolylineVertex
 10
-170.4887390136718
 20
0.0000036152246139
 30
-82.70674896240235
 70
    32
  0
SEQEND
  5
15F
330
13A
100
AcDbEntity
  8
0
 62
   233
420
 14768015
  0
POLYLINE
  5
13D
330
1F
100
AcDbEntity
  8
0
 62
   233
420
 14768015
100
AcDb3dPolyline
 66
     1
 10
0.0
 20
0.0
 30
0.0
 70
     8
  0
VERTEX
  5
13E
330
13D
100
AcDbEntity
  8
0
 62
   233
420
 14768015
100
AcDbVertex
100
AcDb3dPolylineVertex
 10
-170.4887390136718
 20
0.0000036152246139
 30
-82.70674896240235
 70
    32
  0
VERTEX
  5
13F
330
13D
100
AcDbEntity
  8
0
 62
   233
420
 14768015
100
AcDbVertex
100
AcDb3dPolylineVertex
 10
-170.4887390136718
 20
0.0000020369891445
 30
-73.01961517333984
 70
    32
  0
SEQEND
  5
160
330
13D
100
AcDbEntity
  8
0
 62
   233
420
 14768015
  0
POLYLINE
  5
140
330
1F
100
AcDbEntity
  8
0
 62
   233
420
 14768015
100
AcDb3dPolyline
 66
     1
 10
0.0
 20
0.0
 30
0.0
 70
     8
  0
VERTEX
  5
141
330
140
100
AcDbEntity
  8
0
 62
   233
420
 14768015
100
AcDbVertex
100
AcDb3dPolylineVertex
 10
-170.4887390136718
 20
0.0000020369891445
 30
-73.01961517333984
 70
    32
  0
VERTEX
  5
142
330
140
100
AcDbEntity
  8
0
 62
   233
420
 14768015
100
AcDbVertex
100
AcDb3dPolylineVertex
 10
-170.4887390136718
 20
0.0000002145996376
 30
-61.83386611938477
 70
    32
  0
SEQEND
  5
161
330
140
100
AcDbEntity
  8
0
 62
   233
420
 14768015
  0
POLYLINE
  5
143
330
1F
100
AcDbEntity
  8
0
 62
   233
420
 14768015
100
AcDb3dPolyline
 66
     1
 10
0.0
 20
0.0
 30
0.0
 70
     8
  0
VERTEX
  5
144
330
143
100
AcDbEntity
  8
0
 62
   233
420
 14768015
100
AcDbVertex
100
AcDb3dPolylineVertex
 10
-170.4887390136718
 20
0.0000002145996376
 30
-61.83386611938477
 70
    32
  0
VERTEX
  5
145
330
143
100
AcDbEntity
  8
0
 62
   233
420
 14768015
100
AcDbVertex
100
AcDb3dPolylineVertex
 10
-170.4887237548828
 20
-0.0000022748288302
 30
-46.55385971069335
 70
    32
  0
SEQEND
  5
162
330
143
100
AcDbEntity
  8
0
 62
   233
420
 14768015
  0
POLYLINE
  5
146
330
1F
100
AcDbEntity
  8
0
 62
   233
420
 14768015
100
AcDb3dPolyline
 66
     1
 10
0.0
 20
0.0
 30
0.0
 70
     8
  0
VERTEX
  5
147
330
146
100
AcDbEntity
  8
0
 62
   233
420
 14768015
100
AcDbVertex
100
AcDb3dPolylineVertex
 10
-170.4887237548828
 20
-0.0000022748288302
 30
-46.55385971069335
 70
    32
  0
VERTEX
  5
148
330
146
100
AcDbEntity
  8
0
 62
   233
420
 14768015
100
AcDbVertex
100
AcDb3dPolylineVertex
 10
-170.4887237548828
 20
-0.0000043159134293
 30
-34.02577209472656
 70
    32
  0
SEQEND
  5
163
330
146
100
AcDbEntity
  8
0
 62
   233
420
 14768015
  0
POLYLINE
  5
164
330
1F
100
AcDbEntity
  8
0
 62
    36
420
  8862472
100
AcDb3dPolyline
 66
     1
 10
0.0
 20
0.0
 30
0.0
 70
     8
  0
VERTEX
  5
165
330
164
100
AcDbEntity
  8
0
 62
    36
420
  8862472
100
AcDbVertex
100
AcDb3dPolylineVertex
 10
-145.48876953125
 20
-160.4010009765625
 30
-87.46787261962891
 70
    32
  0
VERTEX
  5
166
330
164
100
AcDbEntity
  8
0
 62
    36
420
  8862472
100
AcDbVertex
100
AcDb3dPolylineVertex
 10
-145.48876953125
 20
-162.6443634033203
 30
-85.69520568847655
 70
    32
  0
SEQEND
  5
1E8
330
164
100
AcDbEntity
  8
0
 62
    36
420
  8862472
  0
POLYLINE
  5
167
330
1F
100
AcDbEntity
  8
0
 62
    36
420
  8862472
100
AcDb3dPolyline
 66
     1
 10
0.0
 20
0.0
 30
0.0
 70
     8
  0
VERTEX
  5
168
330
167
100
AcDbEntity
  8
0
 62
    36
420
  8862472
100
AcDbVertex
100
AcDb3dPolylineVertex
 10
-145.48876953125
 20
-163.9342956542968
 30
-82.70678710937501
 70
    32
  0
VERTEX
  5
169
330
167
100
AcDbEntity
  8
0
 62
    36
420
  8862472
100
AcDbVertex
100
AcDb3dPolylineVertex
 10
-145.48876953125
 20
-162.6443634033203
 30
-85.69520568847655
 70
    32
  0
SEQEND
  5
1E9
330
167
100
AcDbEntity
  8
0
 62
    36
420
  8862472
  0
POLYLINE
  5
16A
330
1F
100
AcDbEntity
  8
0
 62
    36
420
  8862472
100
AcDb3dPolyline
 66
     1
 10
0.0
 20
0.0
 30
0.0
 70
     8
  0
VERTEX
  5
16B
330
16A
100
AcDbEntity
  8
0
 62
    36
420
  8862472
100
AcDbVertex
100
AcDb3dPolylineVertex
 10
-145.48876953125
 20
-162.6443481445312
 30
-79.71837615966797
 70
    32
  0
VERTEX
  5
16C
330
16A
100
AcDbEntity
  8
0
 62
    36
420
  8862472
100
AcDbVertex
100
AcDb3dPolylineVertex
 10
-145.48876953125
 20
-163.9342956542968
 30
-82.70678710937501
 70
    32
  0
SEQEND
  5
1EA
330
16A
100
AcDbEntity
  8
0
 62
    36
420
  8862472
  0
POLYLINE
  5
16D
330
1F
100
AcDbEntity
  8
0
 62
    36
420
  8862472
100
AcDb3dPolyline
 66
     1
 10
0.0
 20
0.0
 30
0.0
 70
     8
  0
VERTEX
  5
16E
330
16D
100
AcDbEntity
  8
0
 62
    36
420
  8862472
100
AcDbVertex
100
AcDb3dPolylineVertex
 10
-145.48876953125
 20
-160.4010009765625
 30
-77.94570922851562
 70
    32
  0
VERTEX
  5
16F
330
16D
100
AcDbEntity
  8
0
 62
    36
420
  8862472
100
AcDbVertex
100
AcDb3dPolylineVertex
 10
-145.48876953125
 20
-162.6443481445312
 30
-79.71837615966797
 70
    32
  0
SEQEND
  5
1EB
330
16D
100
AcDbEntity
  8
0
 62
    36
420
  8862472
  0
POLYLINE
  5
170
330
1F
100
AcDbEntity
  8
0
 62
    36
420
  8862472
100
AcDb3dPolyline
 66
     1
 10
0.0
 20
0.0
 30
0.0
 70
     8
  0
VERTEX
  5
171
330
170
100
AcDbEntity
  8
0
 62
    36
420
  8862472
100
AcDbVertex
100
AcDb3dPolylineVertex
 10
-145.4887542724609
 20
-120.3007507324219
 30
-104.3371429443359
 70
    32
  0
VERTEX
  5
172
330
170
100
AcDbEntity
  8
0
 62
    36
420
  8862472
100
AcDbVertex
100
AcDb3dPolylineVertex
 10
-145.4887542724609
 20
-125.0679092407226
 30
-102.7768249511719
 70
    32
  0
SEQEND
  5
1EC
330
170
100
AcDbEntity
  8
0
 62
    36
420
  8862472
  0
POLYLINE
  5
173
330
1F
100
AcDbEntity
  8
0
 62
    36
420
  8862472
100
AcDb3dPolyline
 66
     1
 10
0.0
 20
0.0
 30
0.0
 70
     8
  0
VERTEX
  5
174
330
173
100
AcDbEntity
  8
0
 62
    36
420
  8862472
100
AcDbVertex
100
AcDb3dPolylineVertex
 10
-145.4887542724609
 20
-125.0679092407226
 30
-102.7768249511719
 70
    32
  0
VERTEX
  5
175
330
173
100
AcDbEntity
  8
0
 62
    36
420
  8862472
100
AcDbVertex
100
AcDb3dPolylineVertex
 10
-145.4887542724609
 20
-127.3674011230468
 30
-102.024185180664
 70
    32
  0
SEQEND
  5
1ED
330
173
100
AcDbEntity
  8
0
 62
    36
420
  8862472
  0
POLYLINE
  5
176
330
1F
100
AcDbEntity
  8
0
 62
    36
420
  8862472
100
AcDb3dPolyline
 66
     1
 10
0.0
 20
0.0
 30
0.0
 70
     8
  0
VERTEX
  5
177
330
176
100
AcDbEntity
  8
0
 62
    36
420
  8862472
100
AcDbVertex
100
AcDb3dPolylineVertex
 10
-145.48876953125
 20
-142.3343200683594
 30
-96.31947326660156
 70
    32
  0
VERTEX
  5
178
330
176
100
AcDbEntity
  8
0
 62
    36
420
  8862472
100
AcDbVertex
100
AcDb3dPolylineVertex
 10
-145.4887542724609
 20
-127.3674011230468
 30
-102.024185180664
 70
    32
  0
SEQEND
  5
1EE
330
176
100
AcDbEntity
  8
0
 62
    36
420
  8862472
  0
POLYLINE
  5
179
330
1F
100
AcDbEntity
  8
0
 62
    36
420
  8862472
100
AcDb3dPolyline
 66
     1
 10
0.0
 20
0.0
 30
0.0
 70
     8
  0
VERTEX
  5
17A
330
179
100
AcDbEntity
  8
0
 62
    36
420
  8862472
100
AcDbVertex
100
AcDb3dPolylineVertex
 10
-145.48876953125
 20
-142.3343200683594
 30
-96.31947326660156
 70
    32
  0
VERTEX
  5
17B
330
179
100
AcDbEntity
  8
0
 62
    36
420
  8862472
100
AcDbVertex
100
AcDb3dPolylineVertex
 10
-145.48876953125
 20
-148.7878112792968
 30
-93.85969543457031
 70
    32
  0
SEQEND
  5
1EF
330
179
100
AcDbEntity
  8
0
 62
    36
420
  8862472
  0
POLYLINE
  5
17C
330
1F
100
AcDbEntity
  8
0
 62
    36
420
  8862472
100
AcDb3dPolyline
 66
     1
 10
0.0
 20
0.0
 30
0.0
 70
     8
  0
VERTEX
  5
17D
330
17C
100
AcDbEntity
  8
0
 62
    36
420
  8862472
100
AcDbVertex
100
AcDb3dPolylineVertex
 10
-145.48876953125
 20
-152.3890686035156
 30
-92.07083129882812
 70
    32
  0
VERTEX
  5
17E
330
17C
100
AcDbEntity
  8
0
 62
    36
420
  8862472
100
AcDbVertex
100
AcDb3dPolylineVertex
 10
-145.48876953125
 20
-148.7878112792968
 30
-93.85969543457031
 70
    32
  0
SEQEND
  5
1F0
330
17C
100
AcDbEntity
  8
0
 62
    36
420
  8862472
  0
POLYLINE
  5
17F
330
1F
100
AcDbEntity
  8
0
 62
    36
420
  8862472
100
AcDb3dPolyline
 66
     1
 10
0.0
 20
0.0
 30
0.0
 70
     8
  0
VERTEX
  5
180
330
17F
100
AcDbEntity
  8
0
 62
    36
420
  8862472
100
AcDbVertex
100
AcDb3dPolylineVertex
 10
-145.48876953125
 20
-152.3890686035156
 30
-92.07083129882812
 70
    32
  0
VERTEX
  5
181
330
17F
100
AcDbEntity
  8
0
 62
    36
420
  8862472
100
AcDbVertex
100
AcDb3dPolylineVertex
 10
-145.48876953125
 20
-158.2773742675781
 30
-89.14592742919921
 70
    32
  0
SEQEND
  5
1F1
330
17F
100
AcDbEntity
  8
0
 62
    36
420
  8862472
  0
POLYLINE
  5
182
330
1F
100
AcDbEntity
  8
0
 62
    36
420
  8862472
100
AcDb3dPolyline
 66
     1
 10
0.0
 20
0.0
 30
0.0
 70
     8
  0
VERTEX
  5
183
330
182
100
AcDbEntity
  8
0
 62
    36
420
  8862472
100
AcDbVertex
100
AcDb3dPolylineVertex
 10
-145.48876953125
 20
-158.6754760742187
 30
-88.83135986328126
 70
    32
  0
VERTEX
  5
184
330
182
100
AcDbEntity
  8
0
 62
    36
420
  8862472
100
AcDbVertex
100
AcDb3dPolylineVertex
 10
-145.48876953125
 20
-158.2773742675781
 30
-89.14592742919921
 70
    32
  0
SEQEND
  5
1F2
330
182
100
AcDbEntity
  8
0
 62
    36
420
  8862472
  0
POLYLINE
  5
185
330
1F
100
AcDbEntity
  8
0
 62
    36
420
  8862472
100
AcDb3dPolyline
 66
     1
 10
0.0
 20
0.0
 30
0.0
 70
     8
  0
VERTEX
  5
186
330
185
100
AcDbEntity
  8
0
 62
    36
420
  8862472
100
AcDbVertex
100
AcDb3dPolylineVertex
 10
-145.48876953125
 20
-158.6754760742187
 30
-88.83135986328126
 70
    32
  0
VERTEX
  5
187
330
185
100
AcDbEntity
  8
0
 62
    36
420
  8862472
100
AcDbVertex
100
AcDb3dPolylineVertex
 10
-145.48876953125
 20
-160.4010009765625
 30
-87.46787261962891
 70
    32
  0
SEQEND
  5
1F3
330
185
100
AcDbEntity
  8
0
 62
    36
420
  8862472
  0
POLYLINE
  5
188
330
1F
100
AcDbEntity
  8
0
 62
    36
420
  8862472
100
AcDb3dPolyline
 66
     1
 10
0.0
 20
0.0
 30
0.0
 70
     8
  0
VERTEX
  5
189
330
188
100
AcDbEntity
  8
0
 62
    36
420
  8862472
100
AcDbVertex
100
AcDb3dPolylineVertex
 10
-145.48876953125
 20
-158.2773742675781
 30
-76.26764678955078
 70
    32
  0
VERTEX
  5
18A
330
188
100
AcDbEntity
  8
0
 62
    36
420
  8862472
100
AcDbVertex
100
AcDb3dPolylineVertex
 10
-145.48876953125
 20
-160.4010009765625
 30
-77.94570922851562
 70
    32
  0
SEQEND
  5
1F4
330
188
100
AcDbEntity
  8
0
 62
    36
420
  8862472
  0
POLYLINE
  5
18B
330
1F
100
AcDbEntity
  8
0
 62
    36
420
  8862472
100
AcDb3dPolyline
 66
     1
 10
0.0
 20
0.0
 30
0.0
 70
     8
  0
VERTEX
  5
18C
330
18B
100
AcDbEntity
  8
0
 62
    36
420
  8862472
100
AcDbVertex
100
AcDb3dPolylineVertex
 10
-145.4887542724609
 20
-157.0460968017578
 30
-75.65603637695312
 70
    32
  0
VERTEX
  5
18D
330
18B
100
AcDbEntity
  8
0
 62
    36
420
  8862472
100
AcDbVertex
100
AcDb3dPolylineVertex
 10
-145.48876953125
 20
-158.2773742675781
 30
-76.26764678955078
 70
    32
  0
SEQEND
  5
1F5
330
18B
100
AcDbEntity
  8
0
 62
    36
420
  8862472
  0
POLYLINE
  5
18E
330
1F
100
AcDbEntity
  8
0
 62
    36
420
  8862472
100
AcDb3dPolyline
 66
     1
 10
0.0
 20
0.0
 30
0.0
 70
     8
  0
VERTEX
  5
18F
330
18E
100
AcDbEntity
  8
0
 62
    36
420
  8862472
100
AcDbVertex
100
AcDb3dPolylineVertex
 10
-145.4887542724609
 20
-157.0460968017578
 30
-75.65603637695312
 70
    32
  0
VERTEX
  5
190
330
18E
100
AcDbEntity
  8
0
 62
    36
420
  8862472
100
AcDbVertex
100
AcDb3dPolylineVertex
 10
-145.4887542724609
 20
-148.7877807617187
 30
-71.55387115478515
 70
    32
  0
SEQEND
  5
1F6
330
18E
100
AcDbEntity
  8
0
 62
    36
420
  8862472
  0
POLYLINE
  5
191
330
1F
100
AcDbEntity
  8
0
 62
    36
420
  8862472
100
AcDb3dPolyline
 66
     1
 10
0.0
 20
0.0
 30
0.0
 70
     8
  0
VERTEX
  5
192
330
191
100
AcDbEntity
  8
0
 62
    36
420
  8862472
100
AcDbVertex
100
AcDb3dPolylineVertex
 10
-145.4887542724609
 20
-132.3642272949218
 30
-65.2939453125
 70
    32
  0
VERTEX
  5
193
330
191
100
AcDbEntity
  8
0
 62
    36
420
  8862472
100
AcDbVertex
100
AcDb3dPolylineVertex
 10
-145.4887542724609
 20
-148.7877807617187
 30
-71.55387115478515
 70
    32
  0
SEQEND
  5
1F7
330
191
100
AcDbEntity
  8
0
 62
    36
420
  8862472
  0
POLYLINE
  5
194
330
1F
100
AcDbEntity
  8
0
 62
    36
420
  8862472
100
AcDb3dPolyline
 66
     1
 10
0.0
 20
0.0
 30
0.0
 70
     8
  0
VERTEX
  5
195
330
194
100
AcDbEntity
  8
0
 62
    36
420
  8862472
100
AcDbVertex
100
AcDb3dPolylineVertex
 10
-145.4887542724609
 20
-132.3642272949218
 30
-65.2939453125
 70
    32
  0
VERTEX
  5
196
330
194
100
AcDbEntity
  8
0
 62
    36
420
  8862472
100
AcDbVertex
100
AcDb3dPolylineVertex
 10
-145.4887542724609
 20
-127.3673858642578
 30
-63.38936614990235
 70
    32
  0
SEQEND
  5
1F8
330
194
100
AcDbEntity
  8
0
 62
    36
420
  8862472
  0
POLYLINE
  5
197
330
1F
100
AcDbEntity
  8
0
 62
    36
420
  8862472
100
AcDb3dPolyline
 66
     1
 10
0.0
 20
0.0
 30
0.0
 70
     8
  0
VERTEX
  5
198
330
197
100
AcDbEntity
  8
0
 62
    36
420
  8862472
100
AcDbVertex
100
AcDb3dPolylineVertex
 10
-145.4887542724609
 20
-120.3007583618164
 30
-61.07642364501953
 70
    32
  0
VERTEX
  5
199
330
197
100
AcDbEntity
  8
0
 62
    36
420
  8862472
100
AcDbVertex
100
AcDb3dPolylineVertex
 10
-145.4887542724609
 20
-127.3673858642578
 30
-63.38936614990235
 70
    32
  0
SEQEND
  5
1F9
330
197
100
AcDbEntity
  8
0
 62
    36
420
  8862472
  0
POLYLINE
  5
19A
330
1F
100
AcDbEntity
  8
0
 62
    36
420
  8862472
100
AcDb3dPolyline
 66
     1
 10
0.0
 20
0.0
 30
0.0
 70
     8
  0
VERTEX
  5
19B
330
19A
100
AcDbEntity
  8
0
 62
    36
420
  8862472
100
AcDbVertex
100
AcDb3dPolylineVertex
 10
-145.4887542724609
 20
-80.20048522949219
 30
-117.462158203125
 70
    32
  0
VERTEX
  5
19C
330
19A
100
AcDbEntity
  8
0
 62
    36
420
  8862472
100
AcDbVertex
100
AcDb3dPolylineVertex
 10
-145.4887542724609
 20
-104.207405090332
 30
-109.6045837402344
 70
    32
  0
SEQEND
  5
1FA
330
19A
100
AcDbEntity
  8
0
 62
    36
420
  8862472
  0
POLYLINE
  5
19D
330
1F
100
AcDbEntity
  8
0
 62
    36
420
  8862472
100
AcDb3dPolyline
 66
     1
 10
0.0
 20
0.0
 30
0.0
 70
     8
  0
VERTEX
  5
19E
330
19D
100
AcDbEntity
  8
0
 62
    36
420
  8862472
100
AcDbVertex
100
AcDb3dPolylineVertex
 10
-145.4887542724609
 20
-104.207405090332
 30
-109.6045837402344
 70
    32
  0
VERTEX
  5
19F
330
19D
100
AcDbEntity
  8
0
 62
    36
420
  8862472
100
AcDbVertex
100
AcDb3dPolylineVertex
 10
-145.4887542724609
 20
-120.3007507324219
 30
-104.3371429443359
 70
    32
  0
SEQEND
  5
1FB
330
19D
100
AcDbEntity
  8
0
 62
    36
420
  8862472
  0
POLYLINE
  5
1A0
330
1F
100
AcDbEntity
  8
0
 62
    36
420
  8862472
100
AcDb3dPolyline
 66
     1
 10
0.0
 20
0.0
 30
0.0
 70
     8
  0
VERTEX
  5
1A1
330
1A0
100
AcDbEntity
  8
0
 62
    36
420
  8862472
100
AcDbVertex
100
AcDb3dPolylineVertex
 10
-145.4887390136718
 20
-80.20050048828125
 30
-47.95138931274414
 70
    32
  0
VERTEX
  5
1A2
330
1A0
100
AcDbEntity
  8
0
 62
    36
420
  8862472
100
AcDbVertex
100
AcDb3dPolylineVertex
 10
-145.4887542724609
 20
-104.4947128295898
 30
-55.90301513671875
 70
    32
  0
SEQEND
  5
1FC
330
1A0
100
AcDbEntity
  8
0
 62
    36
420
  8862472
  0
POLYLINE
  5
1A3
330
1F
100
AcDbEntity
  8
0
 62
    36
420
  8862472
100
AcDb3dPolyline
 66
     1
 10
0.0
 20
0.0
 30
0.0
 70
     8
  0
VERTEX
  5
1A4
330
1A3
100
AcDbEntity
  8
0
 62
    36
420
  8862472
100
AcDbVertex
100
AcDb3dPolylineVertex
 10
-145.4887542724609
 20
-104.4947128295898
 30
-55.90301513671875
 70
    32
  0
VERTEX
  5
1A5
330
1A3
100
AcDbEntity
  8
0
 62
    36
420
  8862472
100
AcDbVertex
100
AcDb3dPolylineVertex
 10
-145.4887542724609
 20
-120.3007583618164
 30
-61.07642364501953
 70
    32
  0
SEQEND
  5
1FD
330
1A3
100
AcDbEntity
  8
0
 62
    36
420
  8862472
  0
POLYLINE
  5
1A6
330
1F
100
AcDbEntity
  8
0
 62
    36
420
  8862472
100
AcDb3dPolyline
 66
     1
 10
0.0
 20
0.0
 30
0.0
 70
     8
  0
VERTEX
  5
1A7
330
1A6
100
AcDbEntity
  8
0
 62
    36
420
  8862472
100
AcDbVertex
100
AcDb3dPolylineVertex
 10
-145.4887542724609
 20
-40.10024261474609
 30
-130.1607666015625
 70
    32
  0
VERTEX
  5
1A8
330
1A6
100
AcDbEntity
  8
0
 62
    36
420
  8862472
100
AcDbVertex
100
AcDb3dPolylineVertex
 10
-145.4887542724609
 20
-44.87962341308594
 30
-128.7030487060547
 70
    32
  0
SEQEND
  5
1FE
330
1A6
100
AcDbEntity
  8
0
 62
    36
420
  8862472
  0
POLYLINE
  5
1A9
330
1F
100
AcDbEntity
  8
0
 62
    36
420
  8862472
100
AcDb3dPolyline
 66
     1
 10
0.0
 20
0.0
 30
0.0
 70
     8
  0
VERTEX
  5
1AA
330
1A9
100
AcDbEntity
  8
0
 62
    36
420
  8862472
100
AcDbVertex
100
AcDb3dPolylineVertex
 10
-145.4887542724609
 20
-44.87962341308594
 30
-128.7030487060547
 70
    32
  0
VERTEX
  5
1AB
330
1A9
100
AcDbEntity
  8
0
 62
    36
420
  8862472
100
AcDbVertex
100
AcDb3dPolylineVertex
 10
-145.4887542724609
 20
-59.21772384643555
 30
-124.3299331665039
 70
    32
  0
SEQEND
  5
1FF
330
1A9
100
AcDbEntity
  8
0
 62
    36
420
  8862472
  0
POLYLINE
  5
1AC
330
1F
100
AcDbEntity
  8
0
 62
    36
420
  8862472
100
AcDb3dPolyline
 66
     1
 10
0.0
 20
0.0
 30
0.0
 70
     8
  0
VERTEX
  5
1AD
330
1AC
100
AcDbEntity
  8
0
 62
    36
420
  8862472
100
AcDbVertex
100
AcDb3dPolylineVertex
 10
-145.4887542724609
 20
-75.76193237304687
 30
-118.9149169921875
 70
    32
  0
VERTEX
  5
1AE
330
1AC
100
AcDbEntity
  8
0
 62
    36
420
  8862472
100
AcDbVertex
100
AcDb3dPolylineVertex
 10
-145.4887542724609
 20
-59.21772384643555
 30
-124.3299331665039
 70
    32
  0
SEQEND
  5
200
330
1AC
100
AcDbEntity
  8
0
 62
    36
420
  8862472
  0
POLYLINE
  5
1AF
330
1F
100
AcDbEntity
  8
0
 62
    36
420
  8862472
100
AcDb3dPolyline
 66
     1
 10
0.0
 20
0.0
 30
0.0
 70
     8
  0
VERTEX
  5
1B0
330
1AF
100
AcDbEntity
  8
0
 62
    36
420
  8862472
100
AcDbVertex
100
AcDb3dPolylineVertex
 10
-145.4887542724609
 20
-75.76193237304687
 30
-118.9149169921875
 70
    32
  0
VERTEX
  5
1B1
330
1AF
100
AcDbEntity
  8
0
 62
    36
420
  8862472
100
AcDbVertex
100
AcDb3dPolylineVertex
 10
-145.4887542724609
 20
-80.20048522949219
 30
-117.462158203125
 70
    32
  0
SEQEND
  5
201
330
1AF
100
AcDbEntity
  8
0
 62
    36
420
  8862472
  0
POLYLINE
  5
1B2
330
1F
100
AcDbEntity
  8
0
 62
    36
420
  8862472
100
AcDb3dPolyline
 66
     1
 10
0.0
 20
0.0
 30
0.0
 70
     8
  0
VERTEX
  5
1B3
330
1B2
100
AcDbEntity
  8
0
 62
    36
420
  8862472
100
AcDbVertex
100
AcDb3dPolylineVertex
 10
-145.4887390136718
 20
-59.21763610839843
 30
-41.08358001708984
 70
    32
  0
VERTEX
  5
1B4
330
1B2
100
AcDbEntity
  8
0
 62
    36
420
  8862472
100
AcDbVertex
100
AcDb3dPolylineVertex
 10
-145.4887390136718
 20
-80.20050048828125
 30
-47.95138931274414
 70
    32
  0
SEQEND
  5
202
330
1B2
100
AcDbEntity
  8
0
 62
    36
420
  8862472
  0
POLYLINE
  5
1B5
330
1F
100
AcDbEntity
  8
0
 62
    36
420
  8862472
100
AcDb3dPolyline
 66
     1
 10
0.0
 20
0.0
 30
0.0
 70
     8
  0
VERTEX
  5
1B6
330
1B5
100
AcDbEntity
  8
0
 62
    36
420
  8862472
100
AcDbVertex
100
AcDb3dPolylineVertex
 10
-145.4887390136718
 20
-40.10025787353515
 30
-35.25277709960938
 70
    32
  0
VERTEX
  5
1B7
330
1B5
100
AcDbEntity
  8
0
 62
    36
420
  8862472
100
AcDbVertex
100
AcDb3dPolylineVertex
 10
-145.4887390136718
 20
-59.21763610839843
 30
-41.08358001708984
 70
    32
  0
SEQEND
  5
203
330
1B5
100
AcDbEntity
  8
0
 62
    36
420
  8862472
  0
POLYLINE
  5
1B8
330
1F
100
AcDbEntity
  8
0
 62
    36
420
  8862472
100
AcDb3dPolyline
 66
     1
 10
0.0
 20
0.0
 30
0.0
 70
     8
  0
VERTEX
  5
1B9
330
1B8
100
AcDbEntity
  8
0
 62
    36
420
  8862472
100
AcDbVertex
100
AcDb3dPolylineVertex
 10
-145.4887542724609
 20
0.0000133390767587
 30
-142.3913421630859
 70
    32
  0
VERTEX
  5
1BA
330
1B8
100
AcDbEntity
  8
0
 62
    36
420
  8862472
100
AcDbVertex
100
AcDb3dPolylineVertex
 10
-145.4887542724609
 20
-11.84356594085693
 30
-138.779052734375
 70
    32
  0
SEQEND
  5
204
330
1B8
100
AcDbEntity
  8
0
 62
    36
420
  8862472
  0
POLYLINE
  5
1BB
330
1F
100
AcDbEntity
  8
0
 62
    36
420
  8862472
100
AcDb3dPolyline
 66
     1
 10
0.0
 20
0.0
 30
0.0
 70
     8
  0
VERTEX
  5
1BC
330
1BB
100
AcDbEntity
  8
0
 62
    36
420
  8862472
100
AcDbVertex
100
AcDb3dPolylineVertex
 10
-145.4887542724609
 20
-11.84356594085693
 30
-138.779052734375
 70
    32
  0
VERTEX
  5
1BD
330
1BB
100
AcDbEntity
  8
0
 62
    36
420
  8862472
100
AcDbVertex
100
AcDb3dPolylineVertex
 10
-145.4887542724609
 20
-40.10024261474609
 30
-130.1607666015625
 70
    32
  0
SEQEND
  5
205
330
1BB
100
AcDbEntity
  8
0
 62
    36
420
  8862472
  0
POLYLINE
  5
1BE
330
1F
100
AcDbEntity
  8
0
 62
    36
420
  8862472
100
AcDb3dPolyline
 66
     1
 10
0.0
 20
0.0
 30
0.0
 70
     8
  0
VERTEX
  5
1BF
330
1BE
100
AcDbEntity
  8
0
 62
    36
420
  8862472
100
AcDbVertex
100
AcDb3dPolylineVertex
 10
-145.4887237548828
 20
-0.0000061086252572
 30
-23.02219390869141
 70
    32
  0
VERTEX
  5
1C0
330
1BE
100
AcDbEntity
  8
0
 62
    36
420
  8862472
100
AcDbVertex
100
AcDb3dPolylineVertex
 10
-145.4887390136718
 20
-35.32089996337891
 30
-33.79507446289063
 70
    32
  0
SEQEND
  5
206
330
1BE
100
AcDbEntity
  8
0
 62
    36
420
  8862472
  0
POLYLINE
  5
1C1
330
1F
100
AcDbEntity
  8
0
 62
    36
420
  8862472
100
AcDb3dPolyline
 66
     1
 10
0.0
 20
0.0
 30
0.0
 70
     8
  0
VERTEX
  5
1C2
330
1C1
100
AcDbEntity
  8
0
 62
    36
420
  8862472
100
AcDbVertex
100
AcDb3dPolylineVertex
 10
-145.4887390136718
 20
-35.32089996337891
 30
-33.79507446289063
 70
    32
  0
VERTEX
  5
1C3
330
1C1
100
AcDbEntity
  8
0
 62
    36
420
  8862472
100
AcDbVertex
100
AcDb3dPolylineVertex
 10
-145.4887390136718
 20
-40.10025787353515
 30
-35.25277709960938
 70
    32
  0
SEQEND
  5
207
330
1C1
100
AcDbEntity
  8
0
 62
    36
420
  8862472
  0
POLYLINE
  5
1C4
330
1F
100
AcDbEntity
  8
0
 62
    36
420
  8862472
100
AcDb3dPolyline
 66
     1
 10
0.0
 20
0.0
 30
0.0
 70
     8
  0
VERTEX
  5
1C5
330
1C4
100
AcDbEntity
  8
0
 62
    36
420
  8862472
100
AcDbVertex
100
AcDb3dPolylineVertex
 10
-145.4887390136718
 20
0.0000103964939626
 30
-124.3298950195312
 70
    32
  0
VERTEX
  5
1C6
330
1C4
100
AcDbEntity
  8
0
 62
    36
420
  8862472
100
AcDbVertex
100
AcDb3dPolylineVertex
 10
-145.4887542724609
 20
0.0000133390767587
 30
-142.3913421630859
 70
    32
  0
SEQEND
  5
208
330
1C4
100
AcDbEntity
  8
0
 62
    36
420
  8862472
  0
POLYLINE
  5
1C7
330
1F
100
AcDbEntity
  8
0
 62
    36
420
  8862472
100
AcDb3dPolyline
 66
     1
 10
0.0
 20
0.0
 30
0.0
 70
     8
  0
VERTEX
  5
1C8
330
1C7
100
AcDbEntity
  8
0
 62
    36
420
  8862472
100
AcDbVertex
100
AcDb3dPolylineVertex
 10
-145.4887390136718
 20
0.0000103964939626
 30
-124.3298950195312
 70
    32
  0
VERTEX
  5
1C9
330
1C7
100
AcDbEntity
  8
0
 62
    36
420
  8862472
100
AcDbVertex
100
AcDb3dPolylineVertex
 10
-145.4887390136718
 20
0.0000067624250732
 30
-102.0241317749023
 70
    32
  0
SEQEND
  5
209
330
1C7
100
AcDbEntity
  8
0
 62
    36
420
  8862472
  0
POLYLINE
  5
1CA
330
1F
100
AcDbEntity
  8
0
 62
    36
420
  8862472
100
AcDb3dPolyline
 66
     1
 10
0.0
 20
0.0
 30
0.0
 70
     8
  0
VERTEX
  5
1CB
330
1CA
100
AcDbEntity
  8
0
 62
    36
420
  8862472
100
AcDbVertex
100
AcDb3dPolylineVertex
 10
-145.4887390136718
 20
0.0000067624250732
 30
-102.0241317749023
 70
    32
  0
VERTEX
  5
1CC
330
1CA
100
AcDbEntity
  8
0
 62
    36
420
  8862472
100
AcDbVertex
100
AcDb3dPolylineVertex
 10
-145.4887390136718
 20
0.0000054322613323
 30
-93.85964965820312
 70
    32
  0
SEQEND
  5
20A
330
1CA
100
AcDbEntity
  8
0
 62
    36
420
  8862472
  0
POLYLINE
  5
1CD
330
1F
100
AcDbEntity
  8
0
 62
    36
420
  8862472
100
AcDb3dPolyline
 66
     1
 10
0.0
 20
0.0
 30
0.0
 70
     8
  0
VERTEX
  5
1CE
330
1CD
100
AcDbEntity
  8
0
 62
    36
420
  8862472
100
AcDbVertex
100
AcDb3dPolylineVertex
 10
-145.4887390136718
 20
0.0000054322613323
 30
-93.85964965820312
 70
    32
  0
VERTEX
  5
1CF
330
1CD
100
AcDbEntity
  8
0
 62
    36
420
  8862472
100
AcDbVertex
100
AcDb3dPolylineVertex
 10
-145.4887390136718
 20
0.0000046642917368
 30
-89.14588928222656
 70
    32
  0
SEQEND
  5
20B
330
1CD
100
AcDbEntity
  8
0
 62
    36
420
  8862472
  0
POLYLINE
  5
1D0
330
1F
100
AcDbEntity
  8
0
 62
    36
420
  8862472
100
AcDb3dPolyline
 66
     1
 10
0.0
 20
0.0
 30
0.0
 70
     8
  0
VERTEX
  5
1D1
330
1D0
100
AcDbEntity
  8
0
 62
    36
420
  8862472
100
AcDbVertex
100
AcDb3dPolylineVertex
 10
-145.4887390136718
 20
0.0000046642917368
 30
-89.14588928222656
 70
    32
  0
VERTEX
  5
1D2
330
1D0
100
AcDbEntity
  8
0
 62
    36
420
  8862472
100
AcDbVertex
100
AcDb3dPolylineVertex
 10
-145.4887390136718
 20
0.0000041020989556
 30
-85.6951675415039
 70
    32
  0
SEQEND
  5
20C
330
1D0
100
AcDbEntity
  8
0
 62
    36
420
  8862472
  0
POLYLINE
  5
1D3
330
1F
100
AcDbEntity
  8
0
 62
    36
420
  8862472
100
AcDb3dPolyline
 66
     1
 10
0.0
 20
0.0
 30
0.0
 70
     8
  0
VERTEX
  5
1D4
330
1D3
100
AcDbEntity
  8
0
 62
    36
420
  8862472
100
AcDbVertex
100
AcDb3dPolylineVertex
 10
-145.4887390136718
 20
0.0000041020989556
 30
-85.6951675415039
 70
    32
  0
VERTEX
  5
1D5
330
1D3
100
AcDbEntity
  8
0
 62
    36
420
  8862472
100
AcDbVertex
100
AcDb3dPolylineVertex
 10
-145.4887390136718
 20
0.0000036152255234
 30
-82.70676422119141
 70
    32
  0
SEQEND
  5
20D
330
1D3
100
AcDbEntity
  8
0
 62
    36
420
  8862472
  0
POLYLINE
  5
1D6
330
1F
100
AcDbEntity
  8
0
 62
    36
420
  8862472
100
AcDb3dPolyline
 66
     1
 10
0.0
 20
0.0
 30
0.0
 70
     8
  0
VERTEX
  5
1D7
330
1D6
100
AcDbEntity
  8
0
 62
    36
420
  8862472
100
AcDbVertex
100
AcDb3dPolylineVertex
 10
-145.4887390136718
 20
0.0000036152255234
 30
-82.70676422119141
 70
    32
  0
VERTEX
  5
1D8
330
1D6
100
AcDbEntity
  8
0
 62
    36
420
  8862472
100
AcDbVertex
100
AcDb3dPolylineVertex
 10
-145.4887390136718
 20
0.0000031283518638
 30
-79.71835327148437
 70
    32
  0
SEQEND
  5
20E
330
1D6
100
AcDbEntity
  8
0
 62
    36
420
  8862472
  0
POLYLINE
  5
1D9
330
1F
100
AcDbEntity
  8
0
 62
    36
420
  8862472
100
AcDb3dPolyline
 66
     1
 10
0.0
 20
0.0
 30
0.0
 70
     8
  0
VERTEX
  5
1DA
330
1D9
100
AcDbEntity
  8
0
 62
    36
420
  8862472
100
AcDbVertex
100
AcDb3dPolylineVertex
 10
-145.4887390136718
 20
0.0000031283518638
 30
-79.71835327148437
 70
    32
  0
VERTEX
  5
1DB
330
1D9
100
AcDbEntity
  8
0
 62
    36
420
  8862472
100
AcDbVertex
100
AcDb3dPolylineVertex
 10
-145.4887390136718
 20
0.0000025661588552
 30
-76.26763916015625
 70
    32
  0
SEQEND
  5
20F
330
1D9
100
AcDbEntity
  8
0
 62
    36
420
  8862472
  0
POLYLINE
  5
1DC
330
1F
100
AcDbEntity
  8
0
 62
    36
420
  8862472
100
AcDb3dPolyline
 66
     1
 10
0.0
 20
0.0
 30
0.0
 70
     8
  0
VERTEX
  5
1DD
330
1DC
100
AcDbEntity
  8
0
 62
    36
420
  8862472
100
AcDbVertex
100
AcDb3dPolylineVertex
 10
-145.4887390136718
 20
0.0000025661588552
 30
-76.26763916015625
 70
    32
  0
VERTEX
  5
1DE
330
1DC
100
AcDbEntity
  8
0
 62
    36
420
  8862472
100
AcDbVertex
100
AcDb3dPolylineVertex
 10
-145.4887390136718
 20
0.0000017981886913
 30
-71.55387115478515
 70
    32
  0
SEQEND
  5
210
330
1DC
100
AcDbEntity
  8
0
 62
    36
420
  8862472
  0
POLYLINE
  5
1DF
330
1F
100
AcDbEntity
  8
0
 62
    36
420
  8862472
100
AcDb3dPolyline
 66
     1
 10
0.0
 20
0.0
 30
0.0
 70
     8
  0
VERTEX
  5
1E0
330
1DF
100
AcDbEntity
  8
0
 62
    36
420
  8862472
100
AcDbVertex
100
AcDb3dPolylineVertex
 10
-145.4887390136718
 20
0.0000017981886913
 30
-71.55387115478515
 70
    32
  0
VERTEX
  5
1E1
330
1DF
100
AcDbEntity
  8
0
 62
    36
420
  8862472
100
AcDbVertex
100
AcDb3dPolylineVertex
 10
-145.4887390136718
 20
0.0000004680258314
 30
-63.38938522338867
 70
    32
  0
SEQEND
  5
211
330
1DF
100
AcDbEntity
  8
0
 62
    36
420
  8862472
  0
POLYLINE
  5
1E2
330
1F
100
AcDbEntity
  8
0
 62
    36
420
  8862472
100
AcDb3dPolyline
 66
     1
 10
0.0
 20
0.0
 30
0.0
 70
     8
  0
VERTEX
  5
1E3
330
1E2
100
AcDbEntity
  8
0
 62
    36
420
  8862472
100
AcDbVertex
100
AcDb3dPolylineVertex
 10
-145.4887390136718
 20
0.0000004680258314
 30
-63.38938522338867
 70
    32
  0
VERTEX
  5
1E4
330
1E2
100
AcDbEntity
  8
0
 62
    36
420
  8862472
100
AcDbVertex
100
AcDb3dPolylineVertex
 10
-145.4887237548828
 20
-0.0000031660463264
 30
-41.08361053466796
 70
    32
  0
SEQEND
  5
212
330
1E2
100
AcDbEntity
  8
0
 62
    36
420
  8862472
  0
POLYLINE
  5
1E5
330
1F
100
AcDbEntity
  8
0
 62
    36
420
  8862472
100
AcDb3dPolyline
 66
     1
 10
0.0
 20
0.0
 30
0.0
 70
     8
  0
VERTEX
  5
1E6
330
1E5
100
AcDbEntity
  8
0
 62
    36
420
  8862472
100
AcDbVertex
100
AcDb3dPolylineVertex
 10
-145.4887237548828
 20
-0.0000031660463264
 30
-41.08361053466796
 70
    32
  0
VERTEX
  5
1E7
330
1E5
100
AcDbEntity
  8
0
 62
    36
420
  8862472
100
AcDbVertex
100
AcDb3dPolylineVertex
 10
-145.4887237548828
 20
-0.0000061086252572
 30
-23.02219390869141
 70
    32
  0
SEQEND
  5
213
330
1E5
100
AcDbEntity
  8
0
 62
    36
420
  8862472
  0
POLYLINE
  5
214
330
1F
100
AcDbEntity
  8
0
 62
   133
420
  5759430
100
AcDb3dPolyline
 66
     1
 10
0.0
 20
0.0
 30
0.0
 70
     8
  0
VERTEX
  5
215
330
214
100
AcDbEntity
  8
0
 62
   133
420
  5759430
100
AcDbVertex
100
AcDb3dPolylineVertex
 10
-120.4887619018554
 20
-154.71337890625
 30
-83.60475158691405
 70
    32
  0
VERTEX
  5
216
330
214
100
AcDbEntity
  8
0
 62
   133
420
  5759430
100
AcDbVertex
100
AcDb3dPolylineVertex
 10
-120.4887619018554
 20
-155.1009826660156
 30
-82.70678710937501
 70
    32
  0
SEQEND
  5
295
330
214
100
AcDbEntity
  8
0
 62
   133
420
  5759430
  0
POLYLINE
  5
217
330
1F
100
AcDbEntity
  8
0
 62
   133
420
  5759430
100
AcDb3dPolyline
 66
     1
 10
0.0
 20
0.0
 30
0.0
 70
     8
  0
VERTEX
  5
218
330
217
100
AcDbEntity
  8
0
 62
   133
420
  5759430
100
AcDbVertex
100
AcDb3dPolylineVertex
 10
-120.4887619018554
 20
-154.71337890625
 30
-83.60475158691405
 70
    32
  0
VERTEX
  5
219
330
217
100
AcDbEntity
  8
0
 62
   133
420
  5759430
100
AcDbVertex
100
AcDb3dPolylineVertex
 10
-120.4887619018554
 20
-153.4994201660156
 30
-86.41710662841797
 70
    32
  0
SEQEND
  5
296
330
217
100
AcDbEntity
  8
0
 62
   133
420
  5759430
  0
POLYLINE
  5
21A
330
1F
100
AcDbEntity
  8
0
 62
   133
420
  5759430
100
AcDb3dPolyline
 66
     1
 10
0.0
 20
0.0
 30
0.0
 70
     8
  0
VERTEX
  5
21B
330
21A
100
AcDbEntity
  8
0
 62
   133
420
  5759430
100
AcDbVertex
100
AcDb3dPolylineVertex
 10
-120.4887619018554
 20
-151.6995239257812
 30
-87.83935546875
 70
    32
  0
VERTEX
  5
21C
330
21A
100
AcDbEntity
  8
0
 62
   133
420
  5759430
100
AcDbVertex
100
AcDb3dPolylineVertex
 10
-120.4887619018554
 20
-153.4994201660156
 30
-86.41710662841797
 70
    32
  0
SEQEND
  5
297
330
21A
100
AcDbEntity
  8
0
 62
   133
420
  5759430
  0
POLYLINE
  5
21D
330
1F
100
AcDbEntity
  8
0
 62
   133
420
  5759430
100
AcDb3dPolyline
 66
     1
 10
0.0
 20
0.0
 30
0.0
 70
     8
  0
VERTEX
  5
21E
330
21D
100
AcDbEntity
  8
0
 62
   133
420
  5759430
100
AcDbVertex
100
AcDb3dPolylineVertex
 10
-120.4887619018554
 20
-151.6995239257812
 30
-87.83935546875
 70
    32
  0
VERTEX
  5
21F
330
21D
100
AcDbEntity
  8
0
 62
   133
420
  5759430
100
AcDbVertex
100
AcDb3dPolylineVertex
 10
-120.4887619018554
 20
-148.0775146484375
 30
-90.701416015625
 70
    32
  0
SEQEND
  5
298
330
21D
100
AcDbEntity
  8
0
 62
   133
420
  5759430
  0
POLYLINE
  5
220
330
1F
100
AcDbEntity
  8
0
 62
   133
420
  5759430
100
AcDb3dPolyline
 66
     1
 10
0.0
 20
0.0
 30
0.0
 70
     8
  0
VERTEX
  5
221
330
220
100
AcDbEntity
  8
0
 62
   133
420
  5759430
100
AcDbVertex
100
AcDb3dPolylineVertex
 10
-120.4887619018554
 20
-140.932388305664
 30
-94.2506103515625
 70
    32
  0
VERTEX
  5
222
330
220
100
AcDbEntity
  8
0
 62
   133
420
  5759430
100
AcDbVertex
100
AcDb3dPolylineVertex
 10
-120.4887619018554
 20
-148.0775146484375
 30
-90.701416015625
 70
    32
  0
SEQEND
  5
299
330
220
100
AcDbEntity
  8
0
 62
   133
420
  5759430
  0
POLYLINE
  5
223
330
1F
100
AcDbEntity
  8
0
 62
   133
420
  5759430
100
AcDb3dPolyline
 66
     1
 10
0.0
 20
0.0
 30
0.0
 70
     8
  0
VERTEX
  5
224
330
223
100
AcDbEntity
  8
0
 62
   133
420
  5759430
100
AcDbVertex
100
AcDb3dPolylineVertex
 10
-120.4887619018554
 20
-140.932388305664
 30
-94.2506103515625
 70
    32
  0
VERTEX
  5
225
330
223
100
AcDbEntity
  8
0
 62
   133
420
  5759430
100
AcDbVertex
100
AcDb3dPolylineVertex
 10
-120.4887619018554
 20
-136.2955169677734
 30
-96.55388641357422
 70
    32
  0
SEQEND
  5
29A
330
223
100
AcDbEntity
  8
0
 62
   133
420
  5759430
  0
POLYLINE
  5
226
330
1F
100
AcDbEntity
  8
0
 62
   133
420
  5759430
100
AcDb3dPolyline
 66
     1
 10
0.0
 20
0.0
 30
0.0
 70
     8
  0
VERTEX
  5
227
330
226
100
AcDbEntity
  8
0
 62
   133
420
  5759430
100
AcDbVertex
100
AcDb3dPolylineVertex
 10
-120.4887619018554
 20
-120.3007507324219
 30
-102.6503601074219
 70
    32
  0
VERTEX
  5
228
330
226
100
AcDbEntity
  8
0
 62
   133
420
  5759430
100
AcDbVertex
100
AcDb3dPolylineVertex
 10
-120.4887619018554
 20
-136.2955169677734
 30
-96.55388641357422
 70
    32
  0
SEQEND
  5
29B
330
226
100
AcDbEntity
  8
0
 62
   133
420
  5759430
  0
POLYLINE
  5
229
330
1F
100
AcDbEntity
  8
0
 62
   133
420
  5759430
100
AcDb3dPolyline
 66
     1
 10
0.0
 20
0.0
 30
0.0
 70
     8
  0
VERTEX
  5
22A
330
229
100
AcDbEntity
  8
0
 62
   133
420
  5759430
100
AcDbVertex
100
AcDb3dPolylineVertex
 10
-120.4887542724609
 20
-120.3007583618164
 30
-62.76320266723633
 70
    32
  0
VERTEX
  5
22B
330
229
100
AcDbEntity
  8
0
 62
   133
420
  5759430
100
AcDbVertex
100
AcDb3dPolylineVertex
 10
-120.4887542724609
 20
-132.6720733642578
 30
-67.47859191894531
 70
    32
  0
SEQEND
  5
29C
330
229
100
AcDbEntity
  8
0
 62
   133
420
  5759430
  0
POLYLINE
  5
22C
330
1F
100
AcDbEntity
  8
0
 62
   133
420
  5759430
100
AcDb3dPolyline
 66
     1
 10
0.0
 20
0.0
 30
0.0
 70
     8
  0
VERTEX
  5
22D
330
22C
100
AcDbEntity
  8
0
 62
   133
420
  5759430
100
AcDbVertex
100
AcDb3dPolylineVertex
 10
-120.4887542724609
 20
-132.6720733642578
 30
-67.47859191894531
 70
    32
  0
VERTEX
  5
22E
330
22C
100
AcDbEntity
  8
0
 62
   133
420
  5759430
100
AcDbVertex
100
AcDb3dPolylineVertex
 10
-120.4887542724609
 20
-136.2955474853515
 30
-68.85969543457031
 70
    32
  0
SEQEND
  5
29D
330
22C
100
AcDbEntity
  8
0
 62
   133
420
  5759430
  0
POLYLINE
  5
22F
330
1F
100
AcDbEntity
  8
0
 62
   133
420
  5759430
100
AcDb3dPolyline
 66
     1
 10
0.0
 20
0.0
 30
0.0
 70
     8
  0
VERTEX
  5
230
330
22F
100
AcDbEntity
  8
0
 62
   133
420
  5759430
100
AcDbVertex
100
AcDb3dPolylineVertex
 10
-120.4887619018554
 20
-143.7707061767578
 30
-72.57283782958984
 70
    32
  0
VERTEX
  5
231
330
22F
100
AcDbEntity
  8
0
 62
   133
420
  5759430
100
AcDbVertex
100
AcDb3dPolylineVertex
 10
-120.4887542724609
 20
-136.2955474853515
 30
-68.85969543457031
 70
    32
  0
SEQEND
  5
29E
330
22F
100
AcDbEntity
  8
0
 62
   133
420
  5759430
  0
POLYLINE
  5
232
330
1F
100
AcDbEntity
  8
0
 62
   133
420
  5759430
100
AcDb3dPolyline
 66
     1
 10
0.0
 20
0.0
 30
0.0
 70
     8
  0
VERTEX
  5
233
330
232
100
AcDbEntity
  8
0
 62
   133
420
  5759430
100
AcDbVertex
100
AcDb3dPolylineVertex
 10
-120.4887619018554
 20
-143.7707061767578
 30
-72.57283782958984
 70
    32
  0
VERTEX
  5
234
330
232
100
AcDbEntity
  8
0
 62
   133
420
  5759430
100
AcDbVertex
100
AcDb3dPolylineVertex
 10
-120.4887619018554
 20
-148.0775299072265
 30
-74.71216583251953
 70
    32
  0
SEQEND
  5
29F
330
232
100
AcDbEntity
  8
0
 62
   133
420
  5759430
  0
POLYLINE
  5
235
330
1F
100
AcDbEntity
  8
0
 62
   133
420
  5759430
100
AcDb3dPolyline
 66
     1
 10
0.0
 20
0.0
 30
0.0
 70
     8
  0
VERTEX
  5
236
330
235
100
AcDbEntity
  8
0
 62
   133
420
  5759430
100
AcDbVertex
100
AcDb3dPolylineVertex
 10
-120.4887619018554
 20
-150.3876953125
 30
-76.53762817382812
 70
    32
  0
VERTEX
  5
237
330
235
100
AcDbEntity
  8
0
 62
   133
420
  5759430
100
AcDbVertex
100
AcDb3dPolylineVertex
 10
-120.4887619018554
 20
-148.0775299072265
 30
-74.71216583251953
 70
    32
  0
SEQEND
  5
2A0
330
235
100
AcDbEntity
  8
0
 62
   133
420
  5759430
  0
POLYLINE
  5
238
330
1F
100
AcDbEntity
  8
0
 62
   133
420
  5759430
100
AcDb3dPolyline
 66
     1
 10
0.0
 20
0.0
 30
0.0
 70
     8
  0
VERTEX
  5
239
330
238
100
AcDbEntity
  8
0
 62
   133
420
  5759430
100
AcDbVertex
100
AcDb3dPolylineVertex
 10
-120.4887619018554
 20
-150.3876953125
 30
-76.53762817382812
 70
    32
  0
VERTEX
  5
23A
330
238
100
AcDbEntity
  8
0
 62
   133
420
  5759430
100
AcDbVertex
100
AcDb3dPolylineVertex
 10
-120.4887619018554
 20
-153.4994201660156
 30
-78.99647521972656
 70
    32
  0
SEQEND
  5
2A1
330
238
100
AcDbEntity
  8
0
 62
   133
420
  5759430
  0
POLYLINE
  5
23B
330
1F
100
AcDbEntity
  8
0
 62
   133
420
  5759430
100
AcDb3dPolyline
 66
     1
 10
0.0
 20
0.0
 30
0.0
 70
     8
  0
VERTEX
  5
23C
330
23B
100
AcDbEntity
  8
0
 62
   133
420
  5759430
100
AcDbVertex
100
AcDb3dPolylineVertex
 10
-120.4887619018554
 20
-153.9542541503906
 30
-80.05018615722656
 70
    32
  0
VERTEX
  5
23D
330
23B
100
AcDbEntity
  8
0
 62
   133
420
  5759430
100
AcDbVertex
100
AcDb3dPolylineVertex
 10
-120.4887619018554
 20
-153.4994201660156
 30
-78.99647521972656
 70
    32
  0
SEQEND
  5
2A2
330
23B
100
AcDbEntity
  8
0
 62
   133
420
  5759430
  0
POLYLINE
  5
23E
330
1F
100
AcDbEntity
  8
0
 62
   133
420
  5759430
100
AcDb3dPolyline
 66
     1
 10
0.0
 20
0.0
 30
0.0
 70
     8
  0
VERTEX
  5
23F
330
23E
100
AcDbEntity
  8
0
 62
   133
420
  5759430
100
AcDbVertex
100
AcDb3dPolylineVertex
 10
-120.4887619018554
 20
-153.9542541503906
 30
-80.05018615722656
 70
    32
  0
VERTEX
  5
240
330
23E
100
AcDbEntity
  8
0
 62
   133
420
  5759430
100
AcDbVertex
100
AcDb3dPolylineVertex
 10
-120.4887619018554
 20
-155.1009826660156
 30
-82.70678710937501
 70
    32
  0
SEQEND
  5
2A3
330
23E
100
AcDbEntity
  8
0
 62
   133
420
  5759430
  0
POLYLINE
  5
241
330
1F
100
AcDbEntity
  8
0
 62
   133
420
  5759430
100
AcDb3dPolyline
 66
     1
 10
0.0
 20
0.0
 30
0.0
 70
     8
  0
VERTEX
  5
242
330
241
100
AcDbEntity
  8
0
 62
   133
420
  5759430
100
AcDbVertex
100
AcDb3dPolylineVertex
 10
-120.4887619018554
 20
-109.7005920410156
 30
-106.6906661987304
 70
    32
  0
VERTEX
  5
243
330
241
100
AcDbEntity
  8
0
 62
   133
420
  5759430
100
AcDbVertex
100
AcDb3dPolylineVertex
 10
-120.4887619018554
 20
-120.3007507324219
 30
-102.6503601074219
 70
    32
  0
SEQEND
  5
2A4
330
241
100
AcDbEntity
  8
0
 62
   133
420
  5759430
  0
POLYLINE
  5
244
330
1F
100
AcDbEntity
  8
0
 62
   133
420
  5759430
100
AcDb3dPolyline
 66
     1
 10
0.0
 20
0.0
 30
0.0
 70
     8
  0
VERTEX
  5
245
330
244
100
AcDbEntity
  8
0
 62
   133
420
  5759430
100
AcDbVertex
100
AcDb3dPolylineVertex
 10
-120.4887542724609
 20
-80.20049285888672
 30
-116.3461990356445
 70
    32
  0
VERTEX
  5
246
330
244
100
AcDbEntity
  8
0
 62
   133
420
  5759430
100
AcDbVertex
100
AcDb3dPolylineVertex
 10
-120.4887619018554
 20
-109.7005920410156
 30
-106.6906661987304
 70
    32
  0
SEQEND
  5
2A5
330
244
100
AcDbEntity
  8
0
 62
   133
420
  5759430
  0
POLYLINE
  5
247
330
1F
100
AcDbEntity
  8
0
 62
   133
420
  5759430
100
AcDb3dPolyline
 66
     1
 10
0.0
 20
0.0
 30
0.0
 70
     8
  0
VERTEX
  5
248
330
247
100
AcDbEntity
  8
0
 62
   133
420
  5759430
100
AcDbVertex
100
AcDb3dPolylineVertex
 10
-120.4887466430664
 20
-80.20050811767578
 30
-49.06735610961914
 70
    32
  0
VERTEX
  5
249
330
247
100
AcDbEntity
  8
0
 62
   133
420
  5759430
100
AcDbVertex
100
AcDb3dPolylineVertex
 10
-120.4887466430664
 20
-95.21539306640624
 30
-53.9818115234375
 70
    32
  0
SEQEND
  5
2A6
330
247
100
AcDbEntity
  8
0
 62
   133
420
  5759430
  0
POLYLINE
  5
24A
330
1F
100
AcDbEntity
  8
0
 62
   133
420
  5759430
100
AcDb3dPolyline
 66
     1
 10
0.0
 20
0.0
 30
0.0
 70
     8
  0
VERTEX
  5
24B
330
24A
100
AcDbEntity
  8
0
 62
   133
420
  5759430
100
AcDbVertex
100
AcDb3dPolylineVertex
 10
-120.4887466430664
 20
-95.21539306640624
 30
-53.9818115234375
 70
    32
  0
VERTEX
  5
24C
330
24A
100
AcDbEntity
  8
0
 62
   133
420
  5759430
100
AcDbVertex
100
AcDb3dPolylineVertex
 10
-120.4887542724609
 20
-109.7006301879883
 30
-58.72290802001953
 70
    32
  0
SEQEND
  5
2A7
330
24A
100
AcDbEntity
  8
0
 62
   133
420
  5759430
  0
POLYLINE
  5
24D
330
1F
100
AcDbEntity
  8
0
 62
   133
420
  5759430
100
AcDb3dPolyline
 66
     1
 10
0.0
 20
0.0
 30
0.0
 70
     8
  0
VERTEX
  5
24E
330
24D
100
AcDbEntity
  8
0
 62
   133
420
  5759430
100
AcDbVertex
100
AcDb3dPolylineVertex
 10
-120.4887542724609
 20
-115.5741348266601
 30
-60.96162414550781
 70
    32
  0
VERTEX
  5
24F
330
24D
100
AcDbEntity
  8
0
 62
   133
420
  5759430
100
AcDbVertex
100
AcDb3dPolylineVertex
 10
-120.4887542724609
 20
-109.7006301879883
 30
-58.72290802001953
 70
    32
  0
SEQEND
  5
2A8
330
24D
100
AcDbEntity
  8
0
 62
   133
420
  5759430
  0
POLYLINE
  5
250
330
1F
100
AcDbEntity
  8
0
 62
   133
420
  5759430
100
AcDb3dPolyline
 66
     1
 10
0.0
 20
0.0
 30
0.0
 70
     8
  0
VERTEX
  5
251
330
250
100
AcDbEntity
  8
0
 62
   133
420
  5759430
100
AcDbVertex
100
AcDb3dPolylineVertex
 10
-120.4887542724609
 20
-115.5741348266601
 30
-60.96162414550781
 70
    32
  0
VERTEX
  5
252
330
250
100
AcDbEntity
  8
0
 62
   133
420
  5759430
100
AcDbVertex
100
AcDb3dPolylineVertex
 10
-120.4887542724609
 20
-120.3007583618164
 30
-62.76320266723633
 70
    32
  0
SEQEND
  5
2A9
330
250
100
AcDbEntity
  8
0
 62
   133
420
  5759430
  0
POLYLINE
  5
253
330
1F
100
AcDbEntity
  8
0
 62
   133
420
  5759430
100
AcDb3dPolyline
 66
     1
 10
0.0
 20
0.0
 30
0.0
 70
     8
  0
VERTEX
  5
254
330
253
100
AcDbEntity
  8
0
 62
   133
420
  5759430
100
AcDbVertex
100
AcDb3dPolylineVertex
 10
-120.4887542724609
 20
-40.10023880004882
 30
-129.4712219238281
 70
    32
  0
VERTEX
  5
255
330
253
100
AcDbEntity
  8
0
 62
   133
420
  5759430
100
AcDbVertex
100
AcDb3dPolylineVertex
 10
-120.4887542724609
 20
-48.46121978759765
 30
-126.7346267700195
 70
    32
  0
SEQEND
  5
2AA
330
253
100
AcDbEntity
  8
0
 62
   133
420
  5759430
  0
POLYLINE
  5
256
330
1F
100
AcDbEntity
  8
0
 62
   133
420
  5759430
100
AcDb3dPolyline
 66
     1
 10
0.0
 20
0.0
 30
0.0
 70
     8
  0
VERTEX
  5
257
330
256
100
AcDbEntity
  8
0
 62
   133
420
  5759430
100
AcDbVertex
100
AcDb3dPolylineVertex
 10
-120.4887542724609
 20
-48.46121978759765
 30
-126.7346267700195
 70
    32
  0
VERTEX
  5
258
330
256
100
AcDbEntity
  8
0
 62
   133
420
  5759430
100
AcDbVertex
100
AcDb3dPolylineVertex
 10
-120.4887542724609
 20
-80.20049285888672
 30
-116.3461990356445
 70
    32
  0
SEQEND
  5
2AB
330
256
100
AcDbEntity
  8
0
 62
   133
420
  5759430
  0
POLYLINE
  5
259
330
1F
100
AcDbEntity
  8
0
 62
   133
420
  5759430
100
AcDb3dPolyline
 66
     1
 10
0.0
 20
0.0
 30
0.0
 70
     8
  0
VERTEX
  5
25A
330
259
100
AcDbEntity
  8
0
 62
   133
420
  5759430
100
AcDbVertex
100
AcDb3dPolylineVertex
 10
-120.4887390136718
 20
-40.10025405883789
 30
-35.94233322143555
 70
    32
  0
VERTEX
  5
25B
330
259
100
AcDbEntity
  8
0
 62
   133
420
  5759430
100
AcDbVertex
100
AcDb3dPolylineVertex
 10
-120.4887390136718
 20
-68.54238891601562
 30
-45.25159454345703
 70
    32
  0
SEQEND
  5
2AC
330
259
100
AcDbEntity
  8
0
 62
   133
420
  5759430
  0
POLYLINE
  5
25C
330
1F
100
AcDbEntity
  8
0
 62
   133
420
  5759430
100
AcDb3dPolyline
 66
     1
 10
0.0
 20
0.0
 30
0.0
 70
     8
  0
VERTEX
  5
25D
330
25C
100
AcDbEntity
  8
0
 62
   133
420
  5759430
100
AcDbVertex
100
AcDb3dPolylineVertex
 10
-120.4887390136718
 20
-68.54238891601562
 30
-45.25159454345703
 70
    32
  0
VERTEX
  5
25E
330
25C
100
AcDbEntity
  8
0
 62
   133
420
  5759430
100
AcDbVertex
100
AcDb3dPolylineVertex
 10
-120.4887466430664
 20
-80.20050811767578
 30
-49.06735610961914
 70
    32
  0
SEQEND
  5
2AD
330
25C
100
AcDbEntity
  8
0
 62
   133
420
  5759430
  0
POLYLINE
  5
25F
330
1F
100
AcDbEntity
  8
0
 62
   133
420
  5759430
100
AcDb3dPolyline
 66
     1
 10
0.0
 20
0.0
 30
0.0
 70
     8
  0
VERTEX
  5
260
330
25F
100
AcDbEntity
  8
0
 62
   133
420
  5759430
100
AcDbVertex
100
AcDb3dPolylineVertex
 10
-120.4887466430664
 20
-25.08756065368653
 30
-134.3849334716797
 70
    32
  0
VERTEX
  5
261
330
25F
100
AcDbEntity
  8
0
 62
   133
420
  5759430
100
AcDbVertex
100
AcDb3dPolylineVertex
 10
-120.4887542724609
 20
-40.10023880004882
 30
-129.4712219238281
 70
    32
  0
SEQEND
  5
2AE
330
25F
100
AcDbEntity
  8
0
 62
   133
420
  5759430
  0
POLYLINE
  5
262
330
1F
100
AcDbEntity
  8
0
 62
   133
420
  5759430
100
AcDb3dPolyline
 66
     1
 10
0.0
 20
0.0
 30
0.0
 70
     8
  0
VERTEX
  5
263
330
262
100
AcDbEntity
  8
0
 62
   133
420
  5759430
100
AcDbVertex
100
AcDb3dPolylineVertex
 10
-120.4887466430664
 20
0.0000132812911033
 30
-142.036636352539
 70
    32
  0
VERTEX
  5
264
330
262
100
AcDbEntity
  8
0
 62
   133
420
  5759430
100
AcDbVertex
100
AcDb3dPolylineVertex
 10
-120.4887466430664
 20
-25.08756065368653
 30
-134.3849334716797
 70
    32
  0
SEQEND
  5
2AF
330
262
100
AcDbEntity
  8
0
 62
   133
420
  5759430
  0
POLYLINE
  5
265
330
1F
100
AcDbEntity
  8
0
 62
   133
420
  5759430
100
AcDb3dPolyline
 66
     1
 10
0.0
 20
0.0
 30
0.0
 70
     8
  0
VERTEX
  5
266
330
265
100
AcDbEntity
  8
0
 62
   133
420
  5759430
100
AcDbVertex
100
AcDb3dPolylineVertex
 10
-120.4887237548828
 20
-0.0000060508355091
 30
-23.37689208984375
 70
    32
  0
VERTEX
  5
267
330
265
100
AcDbEntity
  8
0
 62
   133
420
  5759430
100
AcDbVertex
100
AcDb3dPolylineVertex
 10
-120.4887313842773
 20
-5.017539978027343
 30
-24.90724182128906
 70
    32
  0
SEQEND
  5
2B0
330
265
100
AcDbEntity
  8
0
 62
   133
420
  5759430
  0
POLYLINE
  5
268
330
1F
100
AcDbEntity
  8
0
 62
   133
420
  5759430
100
AcDb3dPolyline
 66
     1
 10
0.0
 20
0.0
 30
0.0
 70
     8
  0
VERTEX
  5
269
330
268
100
AcDbEntity
  8
0
 62
   133
420
  5759430
100
AcDbVertex
100
AcDb3dPolylineVertex
 10
-120.4887313842773
 20
-5.017539978027343
 30
-24.90724182128906
 70
    32
  0
VERTEX
  5
26A
330
268
100
AcDbEntity
  8
0
 62
   133
420
  5759430
100
AcDbVertex
100
AcDb3dPolylineVertex
 10
-120.4887313842773
 20
-25.08772277832032
 30
-31.02864837646484
 70
    32
  0
SEQEND
  5
2B1
330
268
100
AcDbEntity
  8
0
 62
   133
420
  5759430
  0
POLYLINE
  5
26B
330
1F
100
AcDbEntity
  8
0
 62
   133
420
  5759430
100
AcDb3dPolyline
 66
     1
 10
0.0
 20
0.0
 30
0.0
 70
     8
  0
VERTEX
  5
26C
330
26B
100
AcDbEntity
  8
0
 62
   133
420
  5759430
100
AcDbVertex
100
AcDb3dPolylineVertex
 10
-120.4887390136718
 20
-37.4475212097168
 30
-35.07407760620117
 70
    32
  0
VERTEX
  5
26D
330
26B
100
AcDbEntity
  8
0
 62
   133
420
  5759430
100
AcDbVertex
100
AcDb3dPolylineVertex
 10
-120.4887313842773
 20
-25.08772277832032
 30
-31.02864837646484
 70
    32
  0
SEQEND
  5
2B2
330
26B
100
AcDbEntity
  8
0
 62
   133
420
  5759430
  0
POLYLINE
  5
26E
330
1F
100
AcDbEntity
  8
0
 62
   133
420
  5759430
100
AcDb3dPolyline
 66
     1
 10
0.0
 20
0.0
 30
0.0
 70
     8
  0
VERTEX
  5
26F
330
26E
100
AcDbEntity
  8
0
 62
   133
420
  5759430
100
AcDbVertex
100
AcDb3dPolylineVertex
 10
-120.4887390136718
 20
-37.4475212097168
 30
-35.07407760620117
 70
    32
  0
VERTEX
  5
270
330
26E
100
AcDbEntity
  8
0
 62
   133
420
  5759430
100
AcDbVertex
100
AcDb3dPolylineVertex
 10
-120.4887390136718
 20
-40.10025405883789
 30
-35.94233322143555
 70
    32
  0
SEQEND
  5
2B3
330
26E
100
AcDbEntity
  8
0
 62
   133
420
  5759430
  0
POLYLINE
  5
271
330
1F
100
AcDbEntity
  8
0
 62
   133
420
  5759430
100
AcDb3dPolyline
 66
     1
 10
0.0
 20
0.0
 30
0.0
 70
     8
  0
VERTEX
  5
272
330
271
100
AcDbEntity
  8
0
 62
   133
420
  5759430
100
AcDbVertex
100
AcDb3dPolylineVertex
 10
-120.4887390136718
 20
0.0000036152275698
 30
-82.70676422119141
 70
    32
  0
VERTEX
  5
273
330
271
100
AcDbEntity
  8
0
 62
   133
420
  5759430
100
AcDbVertex
100
AcDb3dPolylineVertex
 10
-120.4887390136718
 20
0.0000042197175389
 30
-86.41709136962891
 70
    32
  0
SEQEND
  5
2B4
330
271
100
AcDbEntity
  8
0
 62
   133
420
  5759430
  0
POLYLINE
  5
274
330
1F
100
AcDbEntity
  8
0
 62
   133
420
  5759430
100
AcDb3dPolyline
 66
     1
 10
0.0
 20
0.0
 30
0.0
 70
     8
  0
VERTEX
  5
275
330
274
100
AcDbEntity
  8
0
 62
   133
420
  5759430
100
AcDbVertex
100
AcDb3dPolylineVertex
 10
-120.4887390136718
 20
0.0000042197175389
 30
-86.41709136962891
 70
    32
  0
VERTEX
  5
276
330
274
100
AcDbEntity
  8
0
 62
   133
420
  5759430
100
AcDbVertex
100
AcDb3dPolylineVertex
 10
-120.4887390136718
 20
0.0000049177201618
 30
-90.70140838623046
 70
    32
  0
SEQEND
  5
2B5
330
274
100
AcDbEntity
  8
0
 62
   133
420
  5759430
  0
POLYLINE
  5
277
330
1F
100
AcDbEntity
  8
0
 62
   133
420
  5759430
100
AcDb3dPolyline
 66
     1
 10
0.0
 20
0.0
 30
0.0
 70
     8
  0
VERTEX
  5
278
330
277
100
AcDbEntity
  8
0
 62
   133
420
  5759430
100
AcDbVertex
100
AcDb3dPolylineVertex
 10
-120.4887390136718
 20
0.0000049177201618
 30
-90.70140838623046
 70
    32
  0
VERTEX
  5
279
330
277
100
AcDbEntity
  8
0
 62
   133
420
  5759430
100
AcDbVertex
100
AcDb3dPolylineVertex
 10
-120.4887390136718
 20
0.0000058712103055
 30
-96.55387878417968
 70
    32
  0
SEQEND
  5
2B6
330
277
100
AcDbEntity
  8
0
 62
   133
420
  5759430
  0
POLYLINE
  5
27A
330
1F
100
AcDbEntity
  8
0
 62
   133
420
  5759430
100
AcDb3dPolyline
 66
     1
 10
0.0
 20
0.0
 30
0.0
 70
     8
  0
VERTEX
  5
27B
330
27A
100
AcDbEntity
  8
0
 62
   133
420
  5759430
100
AcDbVertex
100
AcDb3dPolylineVertex
 10
-120.4887390136718
 20
0.0000058712103055
 30
-96.55387878417968
 70
    32
  0
VERTEX
  5
27C
330
27A
100
AcDbEntity
  8
0
 62
   133
420
  5759430
100
AcDbVertex
100
AcDb3dPolylineVertex
 10
-120.4887390136718
 20
0.0000075227035268
 30
-106.690673828125
 70
    32
  0
SEQEND
  5
2B7
330
27A
100
AcDbEntity
  8
0
 62
   133
420
  5759430
  0
POLYLINE
  5
27D
330
1F
100
AcDbEntity
  8
0
 62
   133
420
  5759430
100
AcDb3dPolyline
 66
     1
 10
0.0
 20
0.0
 30
0.0
 70
     8
  0
VERTEX
  5
27E
330
27D
100
AcDbEntity
  8
0
 62
   133
420
  5759430
100
AcDbVertex
100
AcDb3dPolylineVertex
 10
-120.4887390136718
 20
0.0000075227035268
 30
-106.690673828125
 70
    32
  0
VERTEX
  5
27F
330
27D
100
AcDbEntity
  8
0
 62
   133
420
  5759430
100
AcDbVertex
100
AcDb3dPolylineVertex
 10
-120.4887466430664
 20
0.0000120346721815
 30
-134.3849487304687
 70
    32
  0
SEQEND
  5
2B8
330
27D
100
AcDbEntity
  8
0
 62
   133
420
  5759430
  0
POLYLINE
  5
280
330
1F
100
AcDbEntity
  8
0
 62
   133
420
  5759430
100
AcDb3dPolyline
 66
     1
 10
0.0
 20
0.0
 30
0.0
 70
     8
  0
VERTEX
  5
281
330
280
100
AcDbEntity
  8
0
 62
   133
420
  5759430
100
AcDbVertex
100
AcDb3dPolylineVertex
 10
-120.4887466430664
 20
0.0000120346721815
 30
-134.3849487304687
 70
    32
  0
VERTEX
  5
282
330
280
100
AcDbEntity
  8
0
 62
   133
420
  5759430
100
AcDbVertex
100
AcDb3dPolylineVertex
 10
-120.4887466430664
 20
0.0000132812911033
 30
-142.036636352539
 70
    32
  0
SEQEND
  5
2B9
330
280
100
AcDbEntity
  8
0
 62
   133
420
  5759430
  0
POLYLINE
  5
283
330
1F
100
AcDbEntity
  8
0
 62
   133
420
  5759430
100
AcDb3dPolyline
 66
     1
 10
0.0
 20
0.0
 30
0.0
 70
     8
  0
VERTEX
  5
284
330
283
100
AcDbEntity
  8
0
 62
   133
420
  5759430
100
AcDbVertex
100
AcDb3dPolylineVertex
 10
-120.4887313842773
 20
-0.0000048042088565
 30
-31.02862930297852
 70
    32
  0
VERTEX
  5
285
330
283
100
AcDbEntity
  8
0
 62
   133
420
  5759430
100
AcDbVertex
100
AcDb3dPolylineVertex
 10
-120.4887237548828
 20
-0.0000060508359638
 30
-23.37689208984375
 70
    32
  0
SEQEND
  5
2BA
330
283
100
AcDbEntity
  8
0
 62
   133
420
  5759430
  0
POLYLINE
  5
286
330
1F
100
AcDbEntity
  8
0
 62
   133
420
  5759430
100
AcDb3dPolyline
 66
     1
 10
0.0
 20
0.0
 30
0.0
 70
     8
  0
VERTEX
  5
287
330
286
100
AcDbEntity
  8
0
 62
   133
420
  5759430
100
AcDbVertex
100
AcDb3dPolylineVertex
 10
-120.4887313842773
 20
-0.0000048042088565
 30
-31.02862930297852
 70
    32
  0
VERTEX
  5
288
330
286
100
AcDbEntity
  8
0
 62
   133
420
  5759430
100
AcDbVertex
100
AcDb3dPolylineVertex
 10
-120.4887313842773
 20
-0.000000292246483
 30
-58.72285842895507
 70
    32
  0
SEQEND
  5
2BB
330
286
100
AcDbEntity
  8
0
 62
   133
420
  5759430
  0
POLYLINE
  5
289
330
1F
100
AcDbEntity
  8
0
 62
   133
420
  5759430
100
AcDb3dPolyline
 66
     1
 10
0.0
 20
0.0
 30
0.0
 70
     8
  0
VERTEX
  5
28A
330
289
100
AcDbEntity
  8
0
 62
   133
420
  5759430
100
AcDbVertex
100
AcDb3dPolylineVertex
 10
-120.4887313842773
 20
-0.000000292246483
 30
-58.72285842895507
 70
    32
  0
VERTEX
  5
28B
330
289
100
AcDbEntity
  8
0
 62
   133
420
  5759430
100
AcDbVertex
100
AcDb3dPolylineVertex
 10
-120.4887313842773
 20
0.0000013592471078
 30
-68.85964965820313
 70
    32
  0
SEQEND
  5
2BC
330
289
100
AcDbEntity
  8
0
 62
   133
420
  5759430
  0
POLYLINE
  5
28C
330
1F
100
AcDbEntity
  8
0
 62
   133
420
  5759430
100
AcDb3dPolyline
 66
     1
 10
0.0
 20
0.0
 30
0.0
 70
     8
  0
VERTEX
  5
28D
330
28C
100
AcDbEntity
  8
0
 62
   133
420
  5759430
100
AcDbVertex
100
AcDb3dPolylineVertex
 10
-120.4887313842773
 20
0.0000013592471078
 30
-68.85964965820313
 70
    32
  0
VERTEX
  5
28E
330
28C
100
AcDbEntity
  8
0
 62
   133
420
  5759430
100
AcDbVertex
100
AcDb3dPolylineVertex
 10
-120.4887390136718
 20
0.0000023127367967
 30
-74.71212768554687
 70
    32
  0
SEQEND
  5
2BD
330
28C
100
AcDbEntity
  8
0
 62
   133
420
  5759430
  0
POLYLINE
  5
28F
330
1F
100
AcDbEntity
  8
0
 62
   133
420
  5759430
100
AcDb3dPolyline
 66
     1
 10
0.0
 20
0.0
 30
0.0
 70
     8
  0
VERTEX
  5
290
330
28F
100
AcDbEntity
  8
0
 62
   133
420
  5759430
100
AcDbVertex
100
AcDb3dPolylineVertex
 10
-120.4887390136718
 20
0.0000023127367967
 30
-74.71212768554687
 70
    32
  0
VERTEX
  5
291
330
28F
100
AcDbEntity
  8
0
 62
   133
420
  5759430
100
AcDbVertex
100
AcDb3dPolylineVertex
 10
-120.4887390136718
 20
0.0000030107396469
 30
-78.99644470214844
 70
    32
  0
SEQEND
  5
2BE
330
28F
100
AcDbEntity
  8
0
 62
   133
420
  5759430
  0
POLYLINE
  5
292
330
1F
100
AcDbEntity
  8
0
 62
   133
420
  5759430
100
AcDb3dPolyline
 66
     1
 10
0.0
 20
0.0
 30
0.0
 70
     8
  0
VERTEX
  5
293
330
292
100
AcDbEntity
  8
0
 62
   133
420
  5759430
100
AcDbVertex
100
AcDb3dPolylineVertex
 10
-120.4887390136718
 20
0.0000030107396469
 30
-78.99644470214844
 70
    32
  0
VERTEX
  5
294
330
292
100
AcDbEntity
  8
0
 62
   133
420
  5759430
100
AcDbVertex
100
AcDb3dPolylineVertex
 10
-120.4887390136718
 20
0.0000036152275698
 30
-82.70676422119141
 70
    32
  0
SEQEND
  5
2BF
330
292
100
AcDbEntity
  8
0
 62
   133
420
  5759430
  0
POLYLINE
  5
2C0
330
1F
100
AcDbEntity
  8
0
 62
   214
420
 11607189
100
AcDb3dPolyline
 66
     1
 10
0.0
 20
0.0
 30
0.0
 70
     8
  0
VERTEX
  5
2C1
330
2C0
100
AcDbEntity
  8
0
 62
   214
420
 11607189
100
AcDbVertex
100
AcDb3dPolylineVertex
 10
-95.48874664306641
 20
-72.0185317993164
 30
-85.29031372070312
 70
    32
  0
VERTEX
  5
2C2
330
2C0
100
AcDbEntity
  8
0
 62
   214
420
 11607189
100
AcDbVertex
100
AcDb3dPolylineVertex
 10
-95.48874664306641
 20
-73.13371276855469
 30
-82.70677947998047
 70
    32
  0
SEQEND
  5
30B
330
2C0
100
AcDbEntity
  8
0
 62
   214
420
 11607189
  0
POLYLINE
  5
2C3
330
1F
100
AcDbEntity
  8
0
 62
   214
420
 11607189
100
AcDb3dPolyline
 66
     1
 10
0.0
 20
0.0
 30
0.0
 70
     8
  0
VERTEX
  5
2C4
330
2C3
100
AcDbEntity
  8
0
 62
   214
420
 11607189
100
AcDbVertex
100
AcDb3dPolylineVertex
 10
-95.48874664306641
 20
-72.0185317993164
 30
-85.29031372070312
 70
    32
  0
VERTEX
  5
2C5
330
2C3
100
AcDbEntity
  8
0
 62
   214
420
 11607189
100
AcDbVertex
100
AcDb3dPolylineVertex
 10
-95.48874664306641
 20
-68.64064025878906
 30
-93.11585235595703
 70
    32
  0
SEQEND
  5
30C
330
2C3
100
AcDbEntity
  8
0
 62
   214
420
 11607189
  0
POLYLINE
  5
2C6
330
1F
100
AcDbEntity
  8
0
 62
   214
420
 11607189
100
AcDb3dPolyline
 66
     1
 10
0.0
 20
0.0
 30
0.0
 70
     8
  0
VERTEX
  5
2C7
330
2C6
100
AcDbEntity
  8
0
 62
   214
420
 11607189
100
AcDbVertex
100
AcDb3dPolylineVertex
 10
-95.48874664306641
 20
-60.48392486572265
 30
-99.5611572265625
 70
    32
  0
VERTEX
  5
2C8
330
2C6
100
AcDbEntity
  8
0
 62
   214
420
 11607189
100
AcDbVertex
100
AcDb3dPolylineVertex
 10
-95.48874664306641
 20
-68.64064025878906
 30
-93.11585235595703
 70
    32
  0
SEQEND
  5
30D
330
2C6
100
AcDbEntity
  8
0
 62
   214
420
 11607189
  0
POLYLINE
  5
2C9
330
1F
100
AcDbEntity
  8
0
 62
   214
420
 11607189
100
AcDb3dPolyline
 66
     1
 10
0.0
 20
0.0
 30
0.0
 70
     8
  0
VERTEX
  5
2CA
330
2C9
100
AcDbEntity
  8
0
 62
   214
420
 11607189
100
AcDbVertex
100
AcDb3dPolylineVertex
 10
-95.48874664306641
 20
-60.48392486572265
 30
-99.5611572265625
 70
    32
  0
VERTEX
  5
2CB
330
2C9
100
AcDbEntity
  8
0
 62
   214
420
 11607189
100
AcDbVertex
100
AcDb3dPolylineVertex
 10
-95.48874664306641
 20
-53.42984008789063
 30
-105.1351928710937
 70
    32
  0
SEQEND
  5
30E
330
2C9
100
AcDbEntity
  8
0
 62
   214
420
 11607189
  0
POLYLINE
  5
2CC
330
1F
100
AcDbEntity
  8
0
 62
   214
420
 11607189
100
AcDb3dPolyline
 66
     1
 10
0.0
 20
0.0
 30
0.0
 70
     8
  0
VERTEX
  5
2CD
330
2CC
100
AcDbEntity
  8
0
 62
   214
420
 11607189
100
AcDbVertex
100
AcDb3dPolylineVertex
 10
-95.48874664306641
 20
-40.10024261474609
 30
-111.7564086914062
 70
    32
  0
VERTEX
  5
2CE
330
2CC
100
AcDbEntity
  8
0
 62
   214
420
 11607189
100
AcDbVertex
100
AcDb3dPolylineVertex
 10
-95.48874664306641
 20
-53.42984008789063
 30
-105.1351928710937
 70
    32
  0
SEQEND
  5
30F
330
2CC
100
AcDbEntity
  8
0
 62
   214
420
 11607189
  0
POLYLINE
  5
2CF
330
1F
100
AcDbEntity
  8
0
 62
   214
420
 11607189
100
AcDb3dPolyline
 66
     1
 10
0.0
 20
0.0
 30
0.0
 70
     8
  0
VERTEX
  5
2D0
330
2CF
100
AcDbEntity
  8
0
 62
   214
420
 11607189
100
AcDbVertex
100
AcDb3dPolylineVertex
 10
-95.48873901367187
 20
-40.10025024414062
 30
-53.65715789794922
 70
    32
  0
VERTEX
  5
2D1
330
2CF
100
AcDbEntity
  8
0
 62
   214
420
 11607189
100
AcDbVertex
100
AcDb3dPolylineVertex
 10
-95.48873901367187
 20
-48.69716644287109
 30
-57.92751312255859
 70
    32
  0
SEQEND
  5
310
330
2CF
100
AcDbEntity
  8
0
 62
   214
420
 11607189
  0
POLYLINE
  5
2D2
330
1F
100
AcDbEntity
  8
0
 62
   214
420
 11607189
100
AcDb3dPolyline
 66
     1
 10
0.0
 20
0.0
 30
0.0
 70
     8
  0
VERTEX
  5
2D3
330
2D2
100
AcDbEntity
  8
0
 62
   214
420
 11607189
100
AcDbVertex
100
AcDb3dPolylineVertex
 10
-95.48873901367187
 20
-48.69716644287109
 30
-57.92751312255859
 70
    32
  0
VERTEX
  5
2D4
330
2D2
100
AcDbEntity
  8
0
 62
   214
420
 11607189
100
AcDbVertex
100
AcDb3dPolylineVertex
 10
-95.48873901367187
 20
-53.42986297607422
 30
-60.27838897705078
 70
    32
  0
SEQEND
  5
311
330
2D2
100
AcDbEntity
  8
0
 62
   214
420
 11607189
  0
POLYLINE
  5
2D5
330
1F
100
AcDbEntity
  8
0
 62
   214
420
 11607189
100
AcDb3dPolyline
 66
     1
 10
0.0
 20
0.0
 30
0.0
 70
     8
  0
VERTEX
  5
2D6
330
2D5
100
AcDbEntity
  8
0
 62
   214
420
 11607189
100
AcDbVertex
100
AcDb3dPolylineVertex
 10
-95.48874664306641
 20
-61.88227081298828
 30
-66.95735168457031
 70
    32
  0
VERTEX
  5
2D7
330
2D5
100
AcDbEntity
  8
0
 62
   214
420
 11607189
100
AcDbVertex
100
AcDb3dPolylineVertex
 10
-95.48873901367187
 20
-53.42986297607422
 30
-60.27838897705078
 70
    32
  0
SEQEND
  5
312
330
2D5
100
AcDbEntity
  8
0
 62
   214
420
 11607189
  0
POLYLINE
  5
2D8
330
1F
100
AcDbEntity
  8
0
 62
   214
420
 11607189
100
AcDb3dPolyline
 66
     1
 10
0.0
 20
0.0
 30
0.0
 70
     8
  0
VERTEX
  5
2D9
330
2D8
100
AcDbEntity
  8
0
 62
   214
420
 11607189
100
AcDbVertex
100
AcDb3dPolylineVertex
 10
-95.48874664306641
 20
-61.88227081298828
 30
-66.95735168457031
 70
    32
  0
VERTEX
  5
2DA
330
2D8
100
AcDbEntity
  8
0
 62
   214
420
 11607189
100
AcDbVertex
100
AcDb3dPolylineVertex
 10
-95.48874664306641
 20
-68.64066314697265
 30
-72.2977294921875
 70
    32
  0
SEQEND
  5
313
330
2D8
100
AcDbEntity
  8
0
 62
   214
420
 11607189
  0
POLYLINE
  5
2DB
330
1F
100
AcDbEntity
  8
0
 62
   214
420
 11607189
100
AcDb3dPolyline
 66
     1
 10
0.0
 20
0.0
 30
0.0
 70
     8
  0
VERTEX
  5
2DC
330
2DB
100
AcDbEntity
  8
0
 62
   214
420
 11607189
100
AcDbVertex
100
AcDb3dPolylineVertex
 10
-95.48874664306641
 20
-70.07011413574218
 30
-75.60933685302734
 70
    32
  0
VERTEX
  5
2DD
330
2DB
100
AcDbEntity
  8
0
 62
   214
420
 11607189
100
AcDbVertex
100
AcDb3dPolylineVertex
 10
-95.48874664306641
 20
-68.64066314697265
 30
-72.2977294921875
 70
    32
  0
SEQEND
  5
314
330
2DB
100
AcDbEntity
  8
0
 62
   214
420
 11607189
  0
POLYLINE
  5
2DE
330
1F
100
AcDbEntity
  8
0
 62
   214
420
 11607189
100
AcDb3dPolyline
 66
     1
 10
0.0
 20
0.0
 30
0.0
 70
     8
  0
VERTEX
  5
2DF
330
2DE
100
AcDbEntity
  8
0
 62
   214
420
 11607189
100
AcDbVertex
100
AcDb3dPolylineVertex
 10
-95.48874664306641
 20
-70.07011413574218
 30
-75.60933685302734
 70
    32
  0
VERTEX
  5
2E0
330
2DE
100
AcDbEntity
  8
0
 62
   214
420
 11607189
100
AcDbVertex
100
AcDb3dPolylineVertex
 10
-95.48874664306641
 20
-73.13371276855469
 30
-82.70677947998047
 70
    32
  0
SEQEND
  5
315
330
2DE
100
AcDbEntity
  8
0
 62
   214
420
 11607189
  0
POLYLINE
  5
2E1
330
1F
100
AcDbEntity
  8
0
 62
   214
420
 11607189
100
AcDb3dPolyline
 66
     1
 10
0.0
 20
0.0
 30
0.0
 70
     8
  0
VERTEX
  5
2E2
330
2E1
100
AcDbEntity
  8
0
 62
   214
420
 11607189
100
AcDbVertex
100
AcDb3dPolylineVertex
 10
-95.48874664306641
 20
-20.3762264251709
 30
-121.5539245605468
 70
    32
  0
VERTEX
  5
2E3
330
2E1
100
AcDbEntity
  8
0
 62
   214
420
 11607189
100
AcDbVertex
100
AcDb3dPolylineVertex
 10
-95.48874664306641
 20
-40.10024261474609
 30
-111.7564086914062
 70
    32
  0
SEQEND
  5
316
330
2E1
100
AcDbEntity
  8
0
 62
   214
420
 11607189
  0
POLYLINE
  5
2E4
330
1F
100
AcDbEntity
  8
0
 62
   214
420
 11607189
100
AcDb3dPolyline
 66
     1
 10
0.0
 20
0.0
 30
0.0
 70
     8
  0
VERTEX
  5
2E5
330
2E4
100
AcDbEntity
  8
0
 62
   214
420
 11607189
100
AcDbVertex
100
AcDb3dPolylineVertex
 10
-95.48874664306641
 20
0.0000112095540317
 30
-129.3204193115234
 70
    32
  0
VERTEX
  5
2E6
330
2E4
100
AcDbEntity
  8
0
 62
   214
420
 11607189
100
AcDbVertex
100
AcDb3dPolylineVertex
 10
-95.48874664306641
 20
-20.3762264251709
 30
-121.5539245605468
 70
    32
  0
SEQEND
  5
317
330
2E4
100
AcDbEntity
  8
0
 62
   214
420
 11607189
  0
POLYLINE
  5
2E7
330
1F
100
AcDbEntity
  8
0
 62
   214
420
 11607189
100
AcDb3dPolyline
 66
     1
 10
0.0
 20
0.0
 30
0.0
 70
     8
  0
VERTEX
  5
2E8
330
2E7
100
AcDbEntity
  8
0
 62
   214
420
 11607189
100
AcDbVertex
100
AcDb3dPolylineVertex
 10
-95.48873138427735
 20
-0.0000039790979827
 30
-36.09313201904297
 70
    32
  0
VERTEX
  5
2E9
330
2E7
100
AcDbEntity
  8
0
 62
   214
420
 11607189
100
AcDbVertex
100
AcDb3dPolylineVertex
 10
-95.48873138427735
 20
-9.383191108703613
 30
-39.66958236694336
 70
    32
  0
SEQEND
  5
318
330
2E7
100
AcDbEntity
  8
0
 62
   214
420
 11607189
  0
POLYLINE
  5
2EA
330
1F
100
AcDbEntity
  8
0
 62
   214
420
 11607189
100
AcDb3dPolyline
 66
     1
 10
0.0
 20
0.0
 30
0.0
 70
     8
  0
VERTEX
  5
2EB
330
2EA
100
AcDbEntity
  8
0
 62
   214
420
 11607189
100
AcDbVertex
100
AcDb3dPolylineVertex
 10
-95.48873138427735
 20
-9.383191108703613
 30
-39.66958236694336
 70
    32
  0
VERTEX
  5
2EC
330
2EA
100
AcDbEntity
  8
0
 62
   214
420
 11607189
100
AcDbVertex
100
AcDb3dPolylineVertex
 10
-95.48873138427735
 20
-20.37630081176758
 30
-43.85966110229492
 70
    32
  0
SEQEND
  5
319
330
2EA
100
AcDbEntity
  8
0
 62
   214
420
 11607189
  0
POLYLINE
  5
2ED
330
1F
100
AcDbEntity
  8
0
 62
   214
420
 11607189
100
AcDb3dPolyline
 66
     1
 10
0.0
 20
0.0
 30
0.0
 70
     8
  0
VERTEX
  5
2EE
330
2ED
100
AcDbEntity
  8
0
 62
   214
420
 11607189
100
AcDbVertex
100
AcDb3dPolylineVertex
 10
-95.48873901367187
 20
-30.81282615661621
 30
-49.04380416870117
 70
    32
  0
VERTEX
  5
2EF
330
2ED
100
AcDbEntity
  8
0
 62
   214
420
 11607189
100
AcDbVertex
100
AcDb3dPolylineVertex
 10
-95.48873138427735
 20
-20.37630081176758
 30
-43.85966110229492
 70
    32
  0
SEQEND
  5
31A
330
2ED
100
AcDbEntity
  8
0
 62
   214
420
 11607189
  0
POLYLINE
  5
2F0
330
1F
100
AcDbEntity
  8
0
 62
   214
420
 11607189
100
AcDb3dPolyline
 66
     1
 10
0.0
 20
0.0
 30
0.0
 70
     8
  0
VERTEX
  5
2F1
330
2F0
100
AcDbEntity
  8
0
 62
   214
420
 11607189
100
AcDbVertex
100
AcDb3dPolylineVertex
 10
-95.48873901367187
 20
-30.81282615661621
 30
-49.04380416870117
 70
    32
  0
VERTEX
  5
2F2
330
2F0
100
AcDbEntity
  8
0
 62
   214
420
 11607189
100
AcDbVertex
100
AcDb3dPolylineVertex
 10
-95.48873901367187
 20
-40.10025024414062
 30
-53.65715789794922
 70
    32
  0
SEQEND
  5
31B
330
2F0
100
AcDbEntity
  8
0
 62
   214
420
 11607189
  0
POLYLINE
  5
2F3
330
1F
100
AcDbEntity
  8
0
 62
   214
420
 11607189
100
AcDb3dPolyline
 66
     1
 10
0.0
 20
0.0
 30
0.0
 70
     8
  0
VERTEX
  5
2F4
330
2F3
100
AcDbEntity
  8
0
 62
   214
420
 11607189
100
AcDbVertex
100
AcDb3dPolylineVertex
 10
-95.48873901367187
 20
0.0000036152273424
 30
-82.70676422119141
 70
    32
  0
VERTEX
  5
2F5
330
2F3
100
AcDbEntity
  8
0
 62
   214
420
 11607189
100
AcDbVertex
100
AcDb3dPolylineVertex
 10
-95.48873901367187
 20
0.0000053110820772
 30
-93.1158447265625
 70
    32
  0
SEQEND
  5
31C
330
2F3
100
AcDbEntity
  8
0
 62
   214
420
 11607189
  0
POLYLINE
  5
2F6
330
1F
100
AcDbEntity
  8
0
 62
   214
420
 11607189
100
AcDb3dPolyline
 66
     1
 10
0.0
 20
0.0
 30
0.0
 70
     8
  0
VERTEX
  5
2F7
330
2F6
100
AcDbEntity
  8
0
 62
   214
420
 11607189
100
AcDbVertex
100
AcDb3dPolylineVertex
 10
-95.48873901367187
 20
0.0000053110820772
 30
-93.1158447265625
 70
    32
  0
VERTEX
  5
2F8
330
2F6
100
AcDbEntity
  8
0
 62
   214
420
 11607189
100
AcDbVertex
100
AcDb3dPolylineVertex
 10
-95.48873901367187
 20
0.0000072692810136
 30
-105.1351852416992
 70
    32
  0
SEQEND
  5
31D
330
2F6
100
AcDbEntity
  8
0
 62
   214
420
 11607189
  0
POLYLINE
  5
2F9
330
1F
100
AcDbEntity
  8
0
 62
   214
420
 11607189
100
AcDb3dPolyline
 66
     1
 10
0.0
 20
0.0
 30
0.0
 70
     8
  0
VERTEX
  5
2FA
330
2F9
100
AcDbEntity
  8
0
 62
   214
420
 11607189
100
AcDbVertex
100
AcDb3dPolylineVertex
 10
-95.48873901367187
 20
0.0000072692810136
 30
-105.1351852416992
 70
    32
  0
VERTEX
  5
2FB
330
2F9
100
AcDbEntity
  8
0
 62
   214
420
 11607189
100
AcDbVertex
100
AcDb3dPolylineVertex
 10
-95.48874664306641
 20
0.0000099442304418
 30
-121.5539169311523
 70
    32
  0
SEQEND
  5
31E
330
2F9
100
AcDbEntity
  8
0
 62
   214
420
 11607189
  0
POLYLINE
  5
2FC
330
1F
100
AcDbEntity
  8
0
 62
   214
420
 11607189
100
AcDb3dPolyline
 66
     1
 10
0.0
 20
0.0
 30
0.0
 70
     8
  0
VERTEX
  5
2FD
330
2FC
100
AcDbEntity
  8
0
 62
   214
420
 11607189
100
AcDbVertex
100
AcDb3dPolylineVertex
 10
-95.48874664306641
 20
0.0000099442304418
 30
-121.5539169311523
 70
    32
  0
VERTEX
  5
2FE
330
2FC
100
AcDbEntity
  8
0
 62
   214
420
 11607189
100
AcDbVertex
100
AcDb3dPolylineVertex
 10
-95.48874664306641
 20
0.0000112095540317
 30
-129.3204193115234
 70
    32
  0
SEQEND
  5
31F
330
2FC
100
AcDbEntity
  8
0
 62
   214
420
 11607189
  0
POLYLINE
  5
2FF
330
1F
100
AcDbEntity
  8
0
 62
   214
420
 11607189
100
AcDb3dPolyline
 66
     1
 10
0.0
 20
0.0
 30
0.0
 70
     8
  0
VERTEX
  5
300
330
2FF
100
AcDbEntity
  8
0
 62
   214
420
 11607189
100
AcDbVertex
100
AcDb3dPolylineVertex
 10
-95.48873138427735
 20
-0.0000027137709822
 30
-43.85965347290039
 70
    32
  0
VERTEX
  5
301
330
2FF
100
AcDbEntity
  8
0
 62
   214
420
 11607189
100
AcDbVertex
100
AcDb3dPolylineVertex
 10
-95.48873138427735
 20
-0.0000039790979827
 30
-36.09313201904297
 70
    32
  0
SEQEND
  5
320
330
2FF
100
AcDbEntity
  8
0
 62
   214
420
 11607189
  0
POLYLINE
  5
302
330
1F
100
AcDbEntity
  8
0
 62
   214
420
 11607189
100
AcDb3dPolyline
 66
     1
 10
0.0
 20
0.0
 30
0.0
 70
     8
  0
VERTEX
  5
303
330
302
100
AcDbEntity
  8
0
 62
   214
420
 11607189
100
AcDbVertex
100
AcDb3dPolylineVertex
 10
-95.48873138427735
 20
-0.0000027137709822
 30
-43.85965347290039
 70
    32
  0
VERTEX
  5
304
330
302
100
AcDbEntity
  8
0
 62
   214
420
 11607189
100
AcDbVertex
100
AcDb3dPolylineVertex
 10
-95.48873138427735
 20
-0.0000000388213195
 30
-60.27837753295898
 70
    32
  0
SEQEND
  5
321
330
302
100
AcDbEntity
  8
0
 62
   214
420
 11607189
  0
POLYLINE
  5
305
330
1F
100
AcDbEntity
  8
0
 62
   214
420
 11607189
100
AcDb3dPolyline
 66
     1
 10
0.0
 20
0.0
 30
0.0
 70
     8
  0
VERTEX
  5
306
330
305
100
AcDbEntity
  8
0
 62
   214
420
 11607189
100
AcDbVertex
100
AcDb3dPolylineVertex
 10
-95.48873138427735
 20
-0.0000000388213195
 30
-60.27837753295898
 70
    32
  0
VERTEX
  5
307
330
305
100
AcDbEntity
  8
0
 62
   214
420
 11607189
100
AcDbVertex
100
AcDb3dPolylineVertex
 10
-95.48873901367187
 20
0.0000019193776097
 30
-72.29771423339844
 70
    32
  0
SEQEND
  5
322
330
305
100
AcDbEntity
  8
0
 62
   214
420
 11607189
  0
POLYLINE
  5
308
330
1F
100
AcDbEntity
  8
0
 62
   214
420
 11607189
100
AcDb3dPolyline
 66
     1
 10
0.0
 20
0.0
 30
0.0
 70
     8
  0
VERTEX
  5
309
330
308
100
AcDbEntity
  8
0
 62
   214
420
 11607189
100
AcDbVertex
100
AcDb3dPolylineVertex
 10
-95.48873901367187
 20
0.0000019193776097
 30
-72.29771423339844
 70
    32
  0
VERTEX
  5
30A
330
308
100
AcDbEntity
  8
0
 62
   214
420
 11607189
100
AcDbVertex
100
AcDb3dPolylineVertex
 10
-95.48873901367187
 20
0.0000036152273424
 30
-82.70676422119141
 70
    32
  0
SEQEND
  5
323
330
308
100
AcDbEntity
  8
0
 62
   214
420
 11607189
  0
ENDSEC
  0
SECTION
  2
OBJECTS
  0
DICTIONARY
  5
C
330
0
100
AcDbDictionary
281
     1
  3
ACAD_COLOR
350
DC
  3
ACAD_DETAILVIEWSTYLE
350
F5
  3
ACAD_GROUP
350
D
  3
ACAD_LAYOUT
350
1A
  3
ACAD_MATERIAL
350
AA
  3
ACAD_MLEADERSTYLE
350
F1
  3
ACAD_MLINESTYLE
350
17
  3
ACAD_PLOTSETTINGS
350
19
  3
ACAD_PLOTSTYLENAME
350
E
  3
ACAD_SCALELIST
350
DF
  3
ACAD_SECTIONVIEWSTYLE
350
F3
  3
ACAD_TABLESTYLE
350
DD
  3
ACAD_VISUALSTYLE
350
C3
  3
ACDB_RECOMPOSE_DATA
350
330
  3
AcDbVariableDictionary
350
324
  0
DICTIONARY
  5
DC
102
{ACAD_REACTORS
330
C
102
}
330
C
100
AcDbDictionary
281
     1
  0
DICTIONARY
  5
F5
102
{ACAD_REACTORS
330
C
102
}
330
C
100
AcDbDictionary
281
     1
  3
Imperial24
350
F6
  0
DICTIONARY
  5
D
102
{ACAD_REACTORS
330
C
102
}
330
C
100
AcDbDictionary
281
     1
  0
DICTIONARY
  5
1A
102
{ACAD_REACTORS
330
C
102
}
330
C
100
AcDbDictionary
281
     1
  3
Layout1
350
1E
  3
Layout2
350
26
  3
Model
350
22
  0
DICTIONARY
  5
AA
102
{ACAD_REACTORS
330
C
102
}
330
C
100
AcDbDictionary
281
     1
  3
ByBlock
350
B3
  3
ByLayer
350
AB
  3
Global
350
BB
  0
DICTIONARY
  5
F1
102
{ACAD_REACTORS
330
C
102
}
330
C
100
AcDbDictionary
281
     1
  3
Standard
350
F2
  0
DICTIONARY
  5
17
102
{ACAD_REACTORS
330
C
102
}
330
C
100
AcDbDictionary
281
     1
  3
Standard
350
18
  0
DICTIONARY
  5
19
102
{ACAD_REACTORS
330
C
102
}
330
C
100
AcDbDictionary
281
     1
  0
ACDBDICTIONARYWDFLT
  5
E
102
{ACAD_REACTORS
330
C
102
}
330
C
100
AcDbDictionary
281
     1
  3
ByLayer
350
2D
  3
Normal
350
F
100
AcDbDictionaryWithDefault
340
F
  0
DICTIONARY
  5
DF
102
{ACAD_REACTORS
330
C
102
}
330
C
100
AcDbDictionary
281
     1
  3
A0
350
E0
  3
A1
350
E1
  3
A2
350
E2
  3
A3
350
E3
  3
A4
350
E4
  3
A5
350
E5
  3
A6
350
E6
  3
A7
350
E7
  3
A8
350
E8
  3
A9
350
E9
  3
B0
350
EA
  3
B1
350
EB
  3
B2
350
EC
  3
B3
350
ED
  3
B4
350
EE
  3
B5
350
EF
  3
B6
350
F0
  0
DICTIONARY
  5
F3
102
{ACAD_REACTORS
330
C
102
}
330
C
100
AcDbDictionary
281
     1
  3
Imperial24
350
F4
  0
DICTIONARY
  5
DD
102
{ACAD_REACTORS
330
C
102
}
330
C
100
AcDbDictionary
281
     1
  3
Standard
350
DE
  0
DICTIONARY
  5
C3
102
{ACAD_REACTORS
330
C
102
}
330
C
100
AcDbDictionary
281
     1
  3
2dWireframe
350
C9
  3
Basic
350
C8
  3
Brighten
350
CF
  3
ColorChange
350
D3
  3
Conceptual
350
CC
  3
Dim
350
CE
  3
EdgeColorOff
350
DB
  3
Facepattern
350
D2
  3
Flat
350
C4
  3
FlatWithEdges
350
C5
  3
Gouraud
350
C6
  3
GouraudWithEdges
350
C7
  3
Hidden
350
CB
  3
JitterOff
350
D9
  3
Linepattern
350
D1
  3
OverhangOff
350
DA
  3
Realistic
350
CD
  3
Shaded
350
D8
  3
Shaded with edges
350
D7
  3
Shades of Gray
350
D4
  3
Sketchy
350
D5
  3
Thicken
350
D0
  3
Wireframe
350
CA
  3
X-Ray
350
D6
  0
XRECORD
  5
330
102
{ACAD_REACTORS
330
C
102
}
330
C
100
AcDbXrecord
280
     1
 90
        1
330
DE
  0
DICTIONARY
  5
324
102
{ACAD_REACTORS
330
C
102
}
330
C
100
AcDbDictionary
281
     1
  3
CANNOSCALE
350
32A
  3
CMLEADERSTYLE
350
326
  3
CTABLESTYLE
350
325
  3
CVIEWDETAILSTYLE
350
327
  3
CVIEWSECTIONSTYLE
350
328
  3
LAYEREVAL
350
32C
  3
LAYERNOTIFY
350
32D
  3
LIGHTINGUNITS
350
32B
  3
MSLTSCALE
350
329
  0
ACDBDETAILVIEWSTYLE
  5
F6
102
{ACAD_XDICTIONARY
360
365
102
}
102
{ACAD_REACTORS
330
F5
102
}
330
F5
100
AcDbModelDocViewStyle
 70
     0
  3
Imperial24
290
     0
100
AcDbDetailViewStyle
 70
     0
 71
     0
 90
        3
 71
     1
340
11
 62
   256
 40
0.24
340
0
 62
   256
 40
0.24
300

 40
0.36
280
     3
 71
     2
340
16
 90
       25
 62
   256
 71
     3
340
11
 62
   256
 40
0.24
 90
        1
 40
0.75
 90
        1
300
%<\AcVar ViewType \f "%tc1">% %<\AcVar ViewDetailId>%\PSCALE %<\AcVar ViewScale \f "%sn">%
 71
     4
340
16
 90
       25
 62
   256
340
16
 90
       25
 62
   256
280
     0
  0
LAYOUT
  5
1E
102
{ACAD_REACTORS
330
1A
102
}
330
1A
100
AcDbPlotSettings
  1

  2
\\KTXNTBDC\CASF2PN1
  4

  6

 40
0.0
 41
0.0
 42
0.0
 43
0.0
 44
0.0
 45
0.0
 46
0.0
 47
0.0
 48
0.0
 49
0.0
140
0.0
141
0.0
142
1.0
143
1.0
 70
   688
 72
     0
 73
     0
 74
     5
  7

 75
    16
147
1.0
 76
     0
 77
     2
 78
   300
148
0.0
149
0.0
100
AcDbLayout
  1
Layout1
 70
     1
 71
     1
 10
0.0
 20
0.0
 11
12.0
 21
9.0
 12
0.0
 22
0.0
 32
0.0
 14
1.000000000000000E+20
 24
1.000000000000000E+20
 34
1.000000000000000E+20
 15
-1.000000000000000E+20
 25
-1.000000000000000E+20
 35
-1.000000000000000E+20
146
0.0
 13
0.0
 23
0.0
 33
0.0
 16
1.0
 26
0.0
 36
0.0
 17
0.0
 27
1.0
 37
0.0
 76
     0
330
1B
  0
LAYOUT
  5
26
102
{ACAD_REACTORS
330
1A
102
}
330
1A
100
AcDbPlotSettings
  1

  2
\\KTXNTBDC\CASF2PN1
  4

  6

 40
0.0
 41
0.0
 42
0.0
 43
0.0
 44
0.0
 45
0.0
 46
0.0
 47
0.0
 48
0.0
 49
0.0
140
0.0
141
0.0
142
1.0
143
1.0
 70
   688
 72
     0
 73
     0
 74
     5
  7

 75
    16
147
1.0
 76
     0
 77
     2
 78
   300
148
0.0
149
0.0
100
AcDbLayout
  1
Layout2
 70
     1
 71
     2
 10
0.0
 20
0.0
 11
12.0
 21
9.0
 12
0.0
 22
0.0
 32
0.0
 14
0.0
 24
0.0
 34
0.0
 15
0.0
 25
0.0
 35
0.0
146
0.0
 13
0.0
 23
0.0
 33
0.0
 16
1.0
 26
0.0
 36
0.0
 17
0.0
 27
1.0
 37
0.0
 76
     0
330
23
  0
LAYOUT
  5
22
102
{ACAD_REACTORS
330
1A
102
}
330
1A
100
AcDbPlotSettings
  1

  2
\\KTXNTBDC\CASF2PN1
  4

  6

 40
0.0
 41
0.0
 42
0.0
 43
0.0
 44
0.0
 45
0.0
 46
0.0
 47
0.0
 48
0.0
 49
0.0
140
0.0
141
0.0
142
1.0
143
1.0
 70
  1712
 72
     0
 73
     0
 74
     0
  7

 75
     0
147
1.0
 76
     0
 77
     2
 78
   300
148
0.0
149
0.0
100
AcDbLayout
  1
Model
 70
     1
 71
     0
 10
0.0
 20
0.0
 11
12.0
 21
9.0
 12
0.0
 22
0.0
 32
0.0
 14
0.0
 24
0.0
 34
0.0
 15
0.0
 25
0.0
 35
0.0
146
0.0
 13
0.0
 23
0.0
 33
0.0
 16
1.0
 26
0.0
 36
0.0
 17
0.0
 27
1.0
 37
0.0
 76
     0
330
1F
  0
MATERIAL
  5
B3
102
{ACAD_XDICTIONARY
360
B4
102
}
102
{ACAD_REACTORS
330
AA
102
}
330
AA
100
AcDbMaterial
  1
ByBlock
 72
     0
 43
0.0208333333333333
 43
0.0
 43
0.0
 43
0.0
 43
0.0
 43
0.0208333333333333
 43
0.0
 43
0.0
 43
0.0
 43
0.0
 43
1.0
 43
0.0
 43
0.0
 43
0.0
 43
0.0
 43
1.0
 77
     0
 47
0.0208333333333333
 47
0.0
 47
0.0
 47
0.0
 47
0.0
 47
0.0208333333333333
 47
0.0
 47
0.0
 47
0.0
 47
0.0
 47
1.0
 47
0.0
 47
0.0
 47
0.0
 47
0.0
 47
1.0
171
     0
 49
0.0208333333333333
 49
0.0
 49
0.0
 49
0.0
 49
0.0
 49
0.0208333333333333
 49
0.0
 49
0.0
 49
0.0
 49
0.0
 49
1.0
 49
0.0
 49
0.0
 49
0.0
 49
0.0
 49
1.0
175
     0
142
0.0208333333333333
142
0.0
142
0.0
142
0.0
142
0.0
142
0.0208333333333333
142
0.0
142
0.0
142
0.0
142
0.0
142
1.0
142
0.0
142
0.0
142
0.0
142
0.0
142
1.0
179
     0
144
0.0208333333333333
144
0.0
144
0.0
144
0.0
144
0.0
144
0.0208333333333333
144
0.0
144
0.0
144
0.0
144
0.0
144
1.0
144
0.0
144
0.0
144
0.0
144
0.0
144
1.0
147
0.0208333333333333
147
0.0
147
0.0
147
0.0
147
0.0
147
0.0208333333333333
147
0.0
147
0.0
147
0.0
147
0.0
147
1.0
147
0.0
147
0.0
147
0.0
147
0.0
147
1.0
  0
MATERIAL
  5
AB
102
{ACAD_XDICTIONARY
360
AC
102
}
102
{ACAD_REACTORS
330
AA
102
}
330
AA
100
AcDbMaterial
  1
ByLayer
 72
     0
 43
0.0208333333333333
 43
0.0
 43
0.0
 43
0.0
 43
0.0
 43
0.0208333333333333
 43
0.0
 43
0.0
 43
0.0
 43
0.0
 43
1.0
 43
0.0
 43
0.0
 43
0.0
 43
0.0
 43
1.0
 77
     0
 47
0.0208333333333333
 47
0.0
 47
0.0
 47
0.0
 47
0.0
 47
0.0208333333333333
 47
0.0
 47
0.0
 47
0.0
 47
0.0
 47
1.0
 47
0.0
 47
0.0
 47
0.0
 47
0.0
 47
1.0
171
     0
 49
0.0208333333333333
 49
0.0
 49
0.0
 49
0.0
 49
0.0
 49
0.0208333333333333
 49
0.0
 49
0.0
 49
0.0
 49
0.0
 49
1.0
 49
0.0
 49
0.0
 49
0.0
 49
0.0
 49
1.0
175
     0
142
0.0208333333333333
142
0.0
142
0.0
142
0.0
142
0.0
142
0.0208333333333333
142
0.0
142
0.0
142
0.0
142
0.0
142
1.0
142
0.0
142
0.0
142
0.0
142
0.0
142
1.0
179
     0
144
0.0208333333333333
144
0.0
144
0.0
144
0.0
144
0.0
144
0.0208333333333333
144
0.0
144
0.0
144
0.0
144
0.0
144
1.0
144
0.0
144
0.0
144
0.0
144
0.0
144
1.0
147
0.0208333333333333
147
0.0
147
0.0
147
0.0
147
0.0
147
0.0208333333333333
147
0.0
147
0.0
147
0.0
147
0.0
147
1.0
147
0.0
147
0.0
147
0.0
147
0.0
147
1.0
  0
MATERIAL
  5
BB
102
{ACAD_XDICTIONARY
360
BC
102
}
102
{ACAD_REACTORS
330
AA
102
}
330
AA
100
AcDbMaterial
  1
Global
 72
     0
 43
0.0208333333333333
 43
0.0
 43
0.0
 43
0.0
 43
0.0
 43
0.0208333333333333
 43
0.0
 43
0.0
 43
0.0
 43
0.0
 43
1.0
 43
0.0
 43
0.0
 43
0.0
 43
0.0
 43
1.0
 77
     0
 47
0.0208333333333333
 47
0.0
 47
0.0
 47
0.0
 47
0.0
 47
0.0208333333333333
 47
0.0
 47
0.0
 47
0.0
 47
0.0
 47
1.0
 47
0.0
 47
0.0
 47
0.0
 47
0.0
 47
1.0
171
     0
 49
0.0208333333333333
 49
0.0
 49
0.0
 49
0.0
 49
0.0
 49
0.0208333333333333
 49
0.0
 49
0.0
 49
0.0
 49
0.0
 49
1.0
 49
0.0
 49
0.0
 49
0.0
 49
0.0
 49
1.0
175
     0
142
0.0208333333333333
142
0.0
142
0.0
142
0.0
142
0.0
142
0.0208333333333333
142
0.0
142
0.0
142
0.0
142
0.0
142
1.0
142
0.0
142
0.0
142
0.0
142
0.0
142
1.0
179
     0
144
0.0208333333333333
144
0.0
144
0.0
144
0.0
144
0.0
144
0.0208333333333333
144
0.0
144
0.0
144
0.0
144
0.0
144
1.0
144
0.0
144
0.0
144
0.0
144
0.0
144
1.0
147
0.0208333333333333
147
0.0
147
0.0
147
0.0
147
0.0
147
0.0208333333333333
147
0.0
147
0.0
147
0.0
147
0.0
147
1.0
147
0.0
147
0.0
147
0.0
147
0.0
147
1.0
  0
MLEADERSTYLE
  5
F2
102
{ACAD_XDICTIONARY
360
361
102
}
102
{ACAD_REACTORS
330
F1
102
}
330
F1
100
AcDbMLeaderStyle
179
     2
170
     2
171
     1
172
     0
 90
        2
 40
0.0
 41
0.0
173
     1
 91
-1056964608
340
14
 92
       -2
290
     1
 42
0.09
291
     1
 43
0.36
  3
Standard
 44
0.18
300

342
11
174
     1
178
     6
175
     1
176
     0
 93
-1056964608
 45
0.18
292
     0
297
     0
 46
0.18
 94
-1056964608
 47
1.0
 49
1.0
140
1.0
293
     1
141
0.0
294
     1
177
     0
142
1.0
295
     0
296
     0
143
0.125
271
     0
272
     9
273
     9
  0
MLINESTYLE
  5
18
102
{ACAD_REACTORS
330
17
102
}
330
17
100
AcDbMlineStyle
  2
STANDARD
 70
     0
  3

 62
   256
 51
90.0
 52
90.0
 71
     2
 49
0.5
 62
   256
  6
BYLAYER
 49
-0.5
 62
   256
  6
BYLAYER
  0
ACDBPLACEHOLDER
  5
2D
102
{ACAD_REACTORS
330
E
102
}
330
E
  0
ACDBPLACEHOLDER
  5
F
102
{ACAD_REACTORS
330
E
102
}
330
E
  0
SCALE
  5
E0
102
{ACAD_REACTORS
330
DF
102
}
330
DF
100
AcDbScale
 70
     0
300
1:1
140
1.0
141
1.0
290
     1
  0
SCALE
  5
E1
102
{ACAD_REACTORS
330
DF
102
}
330
DF
100
AcDbScale
 70
     0
300
1/128" = 1'-0"
140
0.0078125
141
12.0
290
     0
  0
SCALE
  5
E2
102
{ACAD_REACTORS
330
DF
102
}
330
DF
100
AcDbScale
 70
     0
300
1/64" = 1'-0"
140
0.015625
141
12.0
290
     0
  0
SCALE
  5
E3
102
{ACAD_REACTORS
330
DF
102
}
330
DF
100
AcDbScale
 70
     0
300
1/32" = 1'-0"
140
0.03125
141
12.0
290
     0
  0
SCALE
  5
E4
102
{ACAD_REACTORS
330
DF
102
}
330
DF
100
AcDbScale
 70
     0
300
1/16" = 1'-0"
140
0.0625
141
12.0
290
     0
  0
SCALE
  5
E5
102
{ACAD_REACTORS
330
DF
102
}
330
DF
100
AcDbScale
 70
     0
300
3/32" = 1'-0"
140
0.09375
141
12.0
290
     0
  0
SCALE
  5
E6
102
{ACAD_REACTORS
330
DF
102
}
330
DF
100
AcDbScale
 70
     0
300
1/8" = 1'-0"
140
0.125
141
12.0
290
     0
  0
SCALE
  5
E7
102
{ACAD_REACTORS
330
DF
102
}
330
DF
100
AcDbScale
 70
     0
300
3/16" = 1'-0"
140
0.1875
141
12.0
290
     0
  0
SCALE
  5
E8
102
{ACAD_REACTORS
330
DF
102
}
330
DF
100
AcDbScale
 70
     0
300
1/4" = 1'-0"
140
0.25
141
12.0
290
     0
  0
SCALE
  5
E9
102
{ACAD_REACTORS
330
DF
102
}
330
DF
100
AcDbScale
 70
     0
300
3/8" = 1'-0"
140
0.375
141
12.0
290
     0
  0
SCALE
  5
EA
102
{ACAD_REACTORS
330
DF
102
}
330
DF
100
AcDbScale
 70
     0
300
1/2" = 1'-0"
140
0.5
141
12.0
290
     0
  0
SCALE
  5
EB
102
{ACAD_REACTORS
330
DF
102
}
330
DF
100
AcDbScale
 70
     0
300
3/4" = 1'-0"
140
0.75
141
12.0
290
     0
  0
SCALE
  5
EC
102
{ACAD_REACTORS
330
DF
102
}
330
DF
100
AcDbScale
 70
     0
300
1" = 1'-0"
140
1.0
141
12.0
290
     0
  0
SCALE
  5
ED
102
{ACAD_REACTORS
330
DF
102
}
330
DF
100
AcDbScale
 70
     0
300
1-1/2" = 1'-0"
140
1.5
141
12.0
290
     0
  0
SCALE
  5
EE
102
{ACAD_REACTORS
330
DF
102
}
330
DF
100
AcDbScale
 70
     0
300
3" = 1'-0"
140
3.0
141
12.0
290
     0
  0
SCALE
  5
EF
102
{ACAD_REACTORS
330
DF
102
}
330
DF
100
AcDbScale
 70
     0
300
6" = 1'-0"
140
6.0
141
12.0
290
     0
  0
SCALE
  5
F0
102
{ACAD_REACTORS
330
DF
102
}
330
DF
100
AcDbScale
 70
     0
300
1'-0" = 1'-0"
140
12.0
141
12.0
290
     0
  0
ACDBSECTIONVIEWSTYLE
  5
F4
102
{ACAD_XDICTIONARY
360
363
102
}
102
{ACAD_REACTORS
330
F3
102
}
330
F3
100
AcDbModelDocViewStyle
 70
     0
  3
Imperial24
290
     0
100
AcDbSectionViewStyle
 70
     0
 71
     0
 90
       78
 71
     1
340
11
 62
   256
 40
0.24
340
0
340
0
 62
   256
 40
0.24
300
I, O, Q, S, X, Z
 40
0.48
 90
        3
 40
0.18
 90
        1
 71
     2
340
16
 90
       25
 62
   256
340
16
 90
       50
 62
   256
 40
0.24
 40
0.0
 40
0.24
 71
     3
340
11
 62
   256
 40
0.24
 90
        1
 40
0.75
 90
        1
300
%<\AcVar ViewType \f "%tc1">% %<\AcVar ViewSectionStartId>%-%<\AcVar ViewSectionEndId>%\PSCALE %<\AcVar ViewScale \f "%sn">%
 71
     4
 62
   256
 62
   257
300
ANSI31
 40
1.0
 90
        0
290
     0
290
     0
 90
        6
 40
0.0
 40
1.570796326794896
 40
0.2617993877991494
 40
1.308996938995747
 40
-0.2617993877991494
 40
1.832595714594046
  0
TABLESTYLE
  5
DE
102
{ACAD_XDICTIONARY
360
32E
102
}
102
{ACAD_REACTORS
330
DD
102
}
330
DD
100
AcDbTableStyle
280
     0
  3
Standard
 70
     0
 71
     0
 40
0.06
 41
0.06
280
     0
281
     0
  7
Standard
140
0.18
170
     2
 62
     0
 63
     7
283
     0
 90
      512
 91
        0
  1

274
    -2
284
     1
 64
     0
275
    -2
285
     1
 65
     0
276
    -2
286
     1
 66
     0
277
    -2
287
     1
 67
     0
278
    -2
288
     1
 68
     0
279
    -2
289
     1
 69
     0
  7
Standard
140
0.25
170
     5
 62
     0
 63
     7
283
     0
 90
      512
 91
        0
  1

274
    -2
284
     1
 64
     0
275
    -2
285
     1
 65
     0
276
    -2
286
     1
 66
     0
277
    -2
287
     1
 67
     0
278
    -2
288
     1
 68
     0
279
    -2
289
     1
 69
     0
  7
Standard
140
0.18
170
     5
 62
     0
 63
     7
283
     0
 90
      512
 91
        0
  1

274
    -2
284
     1
 64
     0
275
    -2
285
     1
 65
     0
276
    -2
286
     1
 66
     0
277
    -2
287
     1
 67
     0
278
    -2
288
     1
 68
     0
279
    -2
289
     1
 69
     0
  0
VISUALSTYLE
  5
C9
102
{ACAD_XDICTIONARY
360
33B
102
}
102
{ACAD_REACTORS
330
C3
102
}
330
C3
100
AcDbVisualStyle
  2
2dWireframe
 70
     4
177
     2
291
     0
 71
     0
176
     1
 72
     2
176
     1
 73
     0
176
     1
 90
        0
176
     1
 40
0.6
176
     1
 41
30.0
176
     1
 63
     7
421
 16777215
176
     1
 74
     1
176
     1
 91
        4
176
     1
 64
     7
176
     1
 65
   257
176
     1
 75
     1
176
     1
175
     1
176
     1
 42
1.0
176
     1
 92
        0
176
     1
 66
   257
176
     1
 43
1.0
176
     1
 76
     1
176
     1
 77
     6
176
     1
 78
     2
176
     1
 67
     7
176
     1
 79
     5
176
     1
170
     0
176
     1
171
     0
176
     1
290
     0
176
     1
 93
        1
176
     1
 44
0.0
176
     1
173
     0
176
     1
1001
ACAD
1000
AcDbSavedByObjectVersion
1070
     0
  0
VISUALSTYLE
  5
C8
102
{ACAD_XDICTIONARY
360
339
102
}
102
{ACAD_REACTORS
330
C3
102
}
330
C3
100
AcDbVisualStyle
  2
Basic
 70
     7
177
     2
291
     1
 71
     1
176
     1
 72
     0
176
     1
 73
     1
176
     1
 90
        0
176
     1
 40
0.6
176
     1
 41
30.0
176
     1
 63
     7
421
 16777215
176
     1
 74
     0
176
     1
 91
        4
176
     1
 64
     7
176
     1
 65
   257
176
     1
 75
     1
176
     1
175
     1
176
     1
 42
1.0
176
     1
 92
        8
176
     1
 66
     7
176
     1
 43
1.0
176
     1
 76
     1
176
     1
 77
     6
176
     1
 78
     2
176
     1
 67
     7
176
     1
 79
     5
176
     1
170
     0
176
     1
171
     0
176
     1
290
     0
176
     1
 93
        1
176
     1
 44
0.0
176
     1
173
     0
176
     1
1001
ACAD
1000
AcDbSavedByObjectVersion
1070
     0
  0
VISUALSTYLE
  5
CF
102
{ACAD_XDICTIONARY
360
347
102
}
102
{ACAD_REACTORS
330
C3
102
}
330
C3
100
AcDbVisualStyle
  2
Brighten
 70
    12
177
     2
291
     1
 71
     2
176
     1
 72
     2
176
     1
 73
     0
176
     1
 90
        0
176
     1
 40
0.6
176
     1
 41
30.0
176
     1
 63
     7
421
 16777215
176
     1
 74
     1
176
     1
 91
        4
176
     1
 64
     7
176
     1
 65
   257
176
     1
 75
     1
176
     1
175
     1
176
     1
 42
1.0
176
     1
 92
        8
176
     1
 66
     7
176
     1
 43
1.0
176
     1
 76
     1
176
     1
 77
     6
176
     1
 78
     2
176
     1
 67
     7
176
     1
 79
     5
176
     1
170
     0
176
     1
171
     0
176
     1
290
     0
176
     1
 93
        1
176
     1
 44
50.0
176
     1
173
     0
176
     1
1001
ACAD
1000
AcDbSavedByObjectVersion
1070
     0
  0
VISUALSTYLE
  5
D3
102
{ACAD_XDICTIONARY
360
34F
102
}
102
{ACAD_REACTORS
330
C3
102
}
330
C3
100
AcDbVisualStyle
  2
ColorChange
 70
    16
177
     2
291
     1
 71
     2
176
     1
 72
     2
176
     1
 73
     3
176
     1
 90
        0
176
     1
 40
0.6
176
     1
 41
30.0
176
     1
 63
     8
421
  8421504
176
     1
 74
     1
176
     1
 91
        4
176
     1
 64
     7
176
     1
 65
   257
176
     1
 75
     1
176
     1
175
     1
176
     1
 42
1.0
176
     1
 92
        8
176
     1
 66
     8
424
  8421504
176
     1
 43
1.0
176
     1
 76
     1
176
     1
 77
     6
176
     1
 78
     2
176
     1
 67
     7
176
     1
 79
     5
176
     1
170
     0
176
     1
171
     0
176
     1
290
     0
176
     1
 93
        1
176
     1
 44
0.0
176
     1
173
     0
176
     1
1001
ACAD
1000
AcDbSavedByObjectVersion
1070
     0
  0
VISUALSTYLE
  5
CC
102
{ACAD_XDICTIONARY
360
341
102
}
102
{ACAD_REACTORS
330
C3
102
}
330
C3
100
AcDbVisualStyle
  2
Conceptual
 70
     9
177
     2
291
     0
 71
     3
176
     1
 72
     2
176
     1
 73
     0
176
     1
 90
        0
176
     1
 40
0.6
176
     1
 41
30.0
176
     1
 63
     7
421
 16777215
176
     1
 74
     2
176
     1
 91
        2
176
     1
 64
     7
176
     1
 65
   257
176
     1
 75
     1
176
     1
175
     1
176
     1
 42
179.0
176
     1
 92
        8
176
     1
 66
     7
176
     1
 43
1.0
176
     1
 76
     1
176
     1
 77
     6
176
     1
 78
     2
176
     1
 67
     7
176
     1
 79
     3
176
     1
170
     0
176
     1
171
     0
176
     1
290
     0
176
     1
 93
        1
176
     1
 44
0.0
176
     1
173
     0
176
     1
1001
ACAD
1000
AcDbSavedByObjectVersion
1070
     0
  0
VISUALSTYLE
  5
CE
102
{ACAD_XDICTIONARY
360
345
102
}
102
{ACAD_REACTORS
330
C3
102
}
330
C3
100
AcDbVisualStyle
  2
Dim
 70
    11
177
     2
291
     1
 71
     2
176
     1
 72
     2
176
     1
 73
     0
176
     1
 90
        0
176
     1
 40
0.6
176
     1
 41
30.0
176
     1
 63
     7
421
 16777215
176
     1
 74
     1
176
     1
 91
        4
176
     1
 64
     7
176
     1
 65
   257
176
     1
 75
     1
176
     1
175
     1
176
     1
 42
1.0
176
     1
 92
        8
176
     1
 66
     7
176
     1
 43
1.0
176
     1
 76
     1
176
     1
 77
     6
176
     1
 78
     2
176
     1
 67
     7
176
     1
 79
     5
176
     1
170
     0
176
     1
171
     0
176
     1
290
     0
176
     1
 93
        1
176
     1
 44
-50.0
176
     1
173
     0
176
     1
1001
ACAD
1000
AcDbSavedByObjectVersion
1070
     0
  0
VISUALSTYLE
  5
DB
102
{ACAD_XDICTIONARY
360
35F
102
}
102
{ACAD_REACTORS
330
C3
102
}
330
C3
100
AcDbVisualStyle
  2
EdgeColorOff
 70
    22
177
     2
291
     1
 71
     2
176
     0
 72
     2
176
     0
 73
     0
176
     0
 90
        0
176
     0
 40
0.6
176
     0
 41
30.0
176
     0
 63
     7
421
 16777215
176
     0
 74
     1
176
     0
 91
        4
176
     0
 64
     7
176
     0
 65
   257
176
     0
 75
     1
176
     0
175
     1
176
     0
 42
1.0
176
     0
 92
        8
176
     2
 66
     7
176
     0
 43
1.0
176
     0
 76
     1
176
     0
 77
     6
176
     0
 78
     2
176
     0
 67
     7
176
     0
 79
     5
176
     0
170
     0
176
     0
171
     0
176
     0
290
     0
176
     0
 93
        1
176
     0
 44
0.0
176
     0
173
     0
176
     0
1001
ACAD
1000
AcDbSavedByObjectVersion
1070
     0
  0
VISUALSTYLE
  5
D2
102
{ACAD_XDICTIONARY
360
34D
102
}
102
{ACAD_REACTORS
330
C3
102
}
330
C3
100
AcDbVisualStyle
  2
Facepattern
 70
    15
177
     2
291
     1
 71
     2
176
     1
 72
     2
176
     1
 73
     0
176
     1
 90
        0
176
     1
 40
0.6
176
     1
 41
30.0
176
     1
 63
     7
421
 16777215
176
     1
 74
     1
176
     1
 91
        4
176
     1
 64
     7
176
     1
 65
   257
176
     1
 75
     1
176
     1
175
     1
176
     1
 42
1.0
176
     1
 92
        8
176
     1
 66
     7
176
     1
 43
1.0
176
     1
 76
     1
176
     1
 77
     6
176
     1
 78
     2
176
     1
 67
     7
176
     1
 79
     5
176
     1
170
     0
176
     1
171
     0
176
     1
290
     0
176
     1
 93
        1
176
     1
 44
0.0
176
     1
173
     0
176
     1
1001
ACAD
1000
AcDbSavedByObjectVersion
1070
     0
  0
VISUALSTYLE
  5
C4
102
{ACAD_XDICTIONARY
360
331
102
}
102
{ACAD_REACTORS
330
C3
102
}
330
C3
100
AcDbVisualStyle
  2
Flat
 70
     0
177
     2
291
     1
 71
     2
176
     1
 72
     1
176
     1
 73
     1
176
     1
 90
        2
176
     1
 40
0.6
176
     1
 41
30.0
176
     1
 63
     7
421
 16777215
176
     1
 74
     0
176
     1
 91
        0
176
     1
 64
     7
176
     1
 65
   257
176
     1
 75
     1
176
     1
175
     1
176
     1
 42
1.0
176
     1
 92
        8
176
     1
 66
     7
176
     1
 43
1.0
176
     1
 76
     1
176
     1
 77
     6
176
     1
 78
     2
176
     1
 67
     7
176
     1
 79
     5
176
     1
170
     0
176
     1
171
     0
176
     1
290
     0
176
     1
 93
       13
176
     1
 44
0.0
176
     1
173
     0
176
     1
1001
ACAD
1000
AcDbSavedByObjectVersion
1070
     0
  0
VISUALSTYLE
  5
C5
102
{ACAD_XDICTIONARY
360
333
102
}
102
{ACAD_REACTORS
330
C3
102
}
330
C3
100
AcDbVisualStyle
  2
FlatWithEdges
 70
     1
177
     2
291
     1
 71
     2
176
     1
 72
     1
176
     1
 73
     1
176
     1
 90
        2
176
     1
 40
0.6
176
     1
 41
30.0
176
     1
 63
     7
421
 16777215
176
     1
 74
     1
176
     1
 91
        0
176
     1
 64
     7
176
     1
 65
   257
176
     1
 75
     1
176
     1
175
     1
176
     1
 42
1.0
176
     1
 92
        0
176
     1
 66
   257
176
     1
 43
1.0
176
     1
 76
     1
176
     1
 77
     6
176
     1
 78
     2
176
     1
 67
     7
176
     1
 79
     5
176
     1
170
     0
176
     1
171
     0
176
     1
290
     0
176
     1
 93
       13
176
     1
 44
0.0
176
     1
173
     0
176
     1
1001
ACAD
1000
AcDbSavedByObjectVersion
1070
     0
  0
VISUALSTYLE
  5
C6
102
{ACAD_XDICTIONARY
360
335
102
}
102
{ACAD_REACTORS
330
C3
102
}
330
C3
100
AcDbVisualStyle
  2
Gouraud
 70
     2
177
     2
291
     1
 71
     2
176
     1
 72
     2
176
     1
 73
     1
176
     1
 90
        2
176
     1
 40
0.6
176
     1
 41
30.0
176
     1
 63
     7
421
 16777215
176
     1
 74
     0
176
     1
 91
        0
176
     1
 64
     7
176
     1
 65
   257
176
     1
 75
     1
176
     1
175
     1
176
     1
 42
1.0
176
     1
 92
        0
176
     1
 66
     7
176
     1
 43
1.0
176
     1
 76
     1
176
     1
 77
     6
176
     1
 78
     2
176
     1
 67
     7
176
     1
 79
     5
176
     1
170
     0
176
     1
171
     0
176
     1
290
     0
176
     1
 93
       13
176
     1
 44
0.0
176
     1
173
     0
176
     1
1001
ACAD
1000
AcDbSavedByObjectVersion
1070
     0
  0
VISUALSTYLE
  5
C7
102
{ACAD_XDICTIONARY
360
337
102
}
102
{ACAD_REACTORS
330
C3
102
}
330
C3
100
AcDbVisualStyle
  2
GouraudWithEdges
 70
     3
177
     2
291
     1
 71
     2
176
     1
 72
     2
176
     1
 73
     1
176
     1
 90
        2
176
     1
 40
0.6
176
     1
 41
30.0
176
     1
 63
     7
421
 16777215
176
     1
 74
     1
176
     1
 91
        0
176
     1
 64
     7
176
     1
 65
   257
176
     1
 75
     1
176
     1
175
     1
176
     1
 42
1.0
176
     1
 92
        0
176
     1
 66
   257
176
     1
 43
1.0
176
     1
 76
     1
176
     1
 77
     6
176
     1
 78
     2
176
     1
 67
     7
176
     1
 79
     5
176
     1
170
     0
176
     1
171
     0
176
     1
290
     0
176
     1
 93
       13
176
     1
 44
0.0
176
     1
173
     0
176
     1
1001
ACAD
1000
AcDbSavedByObjectVersion
1070
     0
  0
VISUALSTYLE
  5
CB
102
{ACAD_XDICTIONARY
360
33F
102
}
102
{ACAD_REACTORS
330
C3
102
}
330
C3
100
AcDbVisualStyle
  2
Hidden
 70
     6
177
     2
291
     0
 71
     1
176
     1
 72
     2
176
     1
 73
     2
176
     1
 90
        0
176
     1
 40
0.6
176
     1
 41
30.0
176
     1
 63
     7
421
 16777215
176
     1
 74
     2
176
     1
 91
        2
176
     1
 64
     7
176
     1
 65
   257
176
     1
 75
     2
176
     1
175
     1
176
     1
 42
40.0
176
     1
 92
        0
176
     1
 66
   257
176
     1
 43
1.0
176
     1
 76
     1
176
     1
 77
     6
176
     1
 78
     2
176
     1
 67
     7
176
     1
 79
     3
176
     1
170
     0
176
     1
171
     0
176
     1
290
     0
176
     1
 93
        1
176
     1
 44
0.0
176
     1
173
     0
176
     1
1001
ACAD
1000
AcDbSavedByObjectVersion
1070
     0
  0
VISUALSTYLE
  5
D9
102
{ACAD_XDICTIONARY
360
35B
102
}
102
{ACAD_REACTORS
330
C3
102
}
330
C3
100
AcDbVisualStyle
  2
JitterOff
 70
    20
177
     2
291
     1
 71
     2
176
     0
 72
     2
176
     0
 73
     0
176
     0
 90
        0
176
     0
 40
0.6
176
     0
 41
30.0
176
     0
 63
     7
421
 16777215
176
     0
 74
     1
176
     0
 91
        4
176
     0
 64
     7
176
     0
 65
   257
176
     0
 75
     1
176
     0
175
     1
176
     0
 42
1.0
176
     0
 92
       10
176
     2
 66
     7
176
     0
 43
1.0
176
     0
 76
     1
176
     0
 77
     6
176
     0
 78
     2
176
     0
 67
     7
176
     0
 79
     5
176
     0
170
     0
176
     0
171
     0
176
     0
290
     0
176
     0
 93
        1
176
     0
 44
0.0
176
     0
173
     0
176
     0
1001
ACAD
1000
AcDbSavedByObjectVersion
1070
     0
  0
VISUALSTYLE
  5
D1
102
{ACAD_XDICTIONARY
360
34B
102
}
102
{ACAD_REACTORS
330
C3
102
}
330
C3
100
AcDbVisualStyle
  2
Linepattern
 70
    14
177
     2
291
     1
 71
     2
176
     1
 72
     2
176
     1
 73
     0
176
     1
 90
        0
176
     1
 40
0.6
176
     1
 41
30.0
176
     1
 63
     7
421
 16777215
176
     1
 74
     1
176
     1
 91
        4
176
     1
 64
     7
176
     1
 65
   257
176
     1
 75
     7
176
     1
175
     7
176
     1
 42
1.0
176
     1
 92
        8
176
     1
 66
     7
176
     1
 43
1.0
176
     1
 76
     1
176
     1
 77
     6
176
     1
 78
     2
176
     1
 67
     7
176
     1
 79
     5
176
     1
170
     0
176
     1
171
     0
176
     1
290
     0
176
     1
 93
        1
176
     1
 44
0.0
176
     1
173
     0
176
     1
1001
ACAD
1000
AcDbSavedByObjectVersion
1070
     0
  0
VISUALSTYLE
  5
DA
102
{ACAD_XDICTIONARY
360
35D
102
}
102
{ACAD_REACTORS
330
C3
102
}
330
C3
100
AcDbVisualStyle
  2
OverhangOff
 70
    21
177
     2
291
     1
 71
     2
176
     0
 72
     2
176
     0
 73
     0
176
     0
 90
        0
176
     0
 40
0.6
176
     0
 41
30.0
176
     0
 63
     7
421
 16777215
176
     0
 74
     1
176
     0
 91
        4
176
     0
 64
     7
176
     0
 65
   257
176
     0
 75
     1
176
     0
175
     1
176
     0
 42
1.0
176
     0
 92
        9
176
     2
 66
     7
176
     0
 43
1.0
176
     0
 76
     1
176
     0
 77
     6
176
     0
 78
     2
176
     0
 67
     7
176
     0
 79
     5
176
     0
170
     0
176
     0
171
     0
176
     0
290
     0
176
     0
 93
        1
176
     0
 44
0.0
176
     0
173
     0
176
     0
1001
ACAD
1000
AcDbSavedByObjectVersion
1070
     0
  0
VISUALSTYLE
  5
CD
102
{ACAD_XDICTIONARY
360
343
102
}
102
{ACAD_REACTORS
330
C3
102
}
330
C3
100
AcDbVisualStyle
  2
Realistic
 70
     8
177
     2
291
     0
 71
     2
176
     1
 72
     3
176
     1
 73
     0
176
     1
 90
        2
176
     1
 40
0.6
176
     1
 41
30.0
176
     1
 63
     7
421
 16777215
176
     1
 74
     0
176
     1
 91
        0
176
     1
 64
     7
176
     1
 65
   257
176
     1
 75
     1
176
     1
175
     1
176
     1
 42
1.0
176
     1
 92
        8
176
     1
 66
   257
176
     1
 43
1.0
176
     1
 76
     1
176
     1
 77
     6
176
     1
 78
     2
176
     1
 67
     7
176
     1
 79
     3
176
     1
170
     0
176
     1
171
     0
176
     1
290
     0
176
     1
 93
       13
176
     1
 44
0.0
176
     1
173
     0
176
     1
1001
ACAD
1000
AcDbSavedByObjectVersion
1070
     0
  0
VISUALSTYLE
  5
D8
102
{ACAD_XDICTIONARY
360
359
102
}
102
{ACAD_REACTORS
330
C3
102
}
330
C3
100
AcDbVisualStyle
  2
Shaded
 70
    27
177
     2
291
     0
 71
     2
176
     1
 72
     2
176
     1
 73
     1
176
     1
 90
        2
176
     1
 40
0.6
176
     1
 41
30.0
176
     1
 63
     7
421
 16777215
176
     1
 74
     0
176
     1
 91
        4
176
     1
 64
     7
176
     1
 65
   257
176
     1
 75
     1
176
     1
175
     1
176
     1
 42
1.0
176
     1
 92
        8
176
     1
 66
   257
176
     1
 43
1.0
176
     1
 76
     1
176
     1
 77
     6
176
     1
 78
     2
176
     1
 67
     8
425
  7895160
176
     1
 79
     3
176
     1
170
     0
176
     1
171
     0
176
     1
290
     0
176
     1
 93
        5
176
     1
 44
0.0
176
     1
173
     0
176
     1
1001
ACAD
1000
AcDbSavedByObjectVersion
1070
     0
  0
VISUALSTYLE
  5
D7
102
{ACAD_XDICTIONARY
360
357
102
}
102
{ACAD_REACTORS
330
C3
102
}
330
C3
100
AcDbVisualStyle
  2
Shaded with edges
 70
    26
177
     2
291
     0
 71
     2
176
     1
 72
     2
176
     1
 73
     1
176
     1
 90
        2
176
     1
 40
0.6
176
     1
 41
30.0
176
     1
 63
     7
421
 16777215
176
     1
 74
     1
176
     1
 91
        2
176
     1
 64
     7
176
     1
 65
   257
176
     1
 75
     2
176
     1
175
     1
176
     1
 42
1.0
176
     1
 92
        8
176
     1
 66
   257
176
     1
 43
1.0
176
     1
 76
     1
176
     1
 77
     6
176
     1
 78
     2
176
     1
 67
     7
176
     1
 79
     3
176
     1
170
     0
176
     1
171
     0
176
     1
290
     0
176
     1
 93
        5
176
     1
 44
0.0
176
     1
173
     0
176
     1
1001
ACAD
1000
AcDbSavedByObjectVersion
1070
     0
  0
VISUALSTYLE
  5
D4
102
{ACAD_XDICTIONARY
360
351
102
}
102
{ACAD_REACTORS
330
C3
102
}
330
C3
100
AcDbVisualStyle
  2
Shades of Gray
 70
    23
177
     2
291
     0
 71
     2
176
     1
 72
     2
176
     1
 73
     3
176
     1
 90
        0
176
     1
 40
0.6
176
     1
 41
30.0
176
     1
 63
     7
421
 16777215
176
     1
 74
     2
176
     1
 91
        2
176
     1
 64
     7
176
     1
 65
     7
176
     1
 75
     1
176
     1
175
     1
176
     1
 42
40.0
176
     1
 92
        8
176
     1
 66
     7
176
     1
 43
1.0
176
     1
 76
     1
176
     1
 77
     6
176
     1
 78
     2
176
     1
 67
     7
176
     1
 79
     3
176
     1
170
     0
176
     1
171
     0
176
     1
290
     0
176
     1
 93
        1
176
     1
 44
0.0
176
     1
173
     0
176
     1
1001
ACAD
1000
AcDbSavedByObjectVersion
1070
     0
  0
VISUALSTYLE
  5
D5
102
{ACAD_XDICTIONARY
360
353
102
}
102
{ACAD_REACTORS
330
C3
102
}
330
C3
100
AcDbVisualStyle
  2
Sketchy
 70
    24
177
     2
291
     0
 71
     1
176
     1
 72
     2
176
     1
 73
     2
176
     1
 90
        0
176
     1
 40
0.6
176
     1
 41
30.0
176
     1
 63
     7
421
 16777215
176
     1
 74
     2
176
     1
 91
        2
176
     1
 64
     7
176
     1
 65
     7
176
     1
 75
     1
176
     1
175
     1
176
     1
 42
40.0
176
     1
 92
       11
176
     1
 66
     7
176
     1
 43
1.0
176
     1
 76
     1
176
     1
 77
     6
176
     1
 78
     2
176
     1
 67
     7
176
     1
 79
     6
176
     1
170
     0
176
     1
171
     0
176
     1
290
     0
176
     1
 93
        1
176
     1
 44
0.0
176
     1
173
     0
176
     1
1001
ACAD
1000
AcDbSavedByObjectVersion
1070
     0
  0
VISUALSTYLE
  5
D0
102
{ACAD_XDICTIONARY
360
349
102
}
102
{ACAD_REACTORS
330
C3
102
}
330
C3
100
AcDbVisualStyle
  2
Thicken
 70
    13
177
     2
291
     1
 71
     2
176
     1
 72
     2
176
     1
 73
     0
176
     1
 90
        0
176
     1
 40
0.6
176
     1
 41
30.0
176
     1
 63
     7
421
 16777215
176
     1
 74
     1
176
     1
 91
        4
176
     1
 64
     7
176
     1
 65
   257
176
     1
 75
     1
176
     1
175
     1
176
     1
 42
1.0
176
     1
 92
       12
176
     1
 66
     7
176
     1
 43
1.0
176
     1
 76
     1
176
     1
 77
     6
176
     1
 78
     2
176
     1
 67
     7
176
     1
 79
     5
176
     1
170
     0
176
     1
171
     0
176
     1
290
     0
176
     1
 93
        1
176
     1
 44
0.0
176
     1
173
     0
176
     1
1001
ACAD
1000
AcDbSavedByObjectVersion
1070
     0
  0
VISUALSTYLE
  5
CA
102
{ACAD_XDICTIONARY
360
33D
102
}
102
{ACAD_REACTORS
330
C3
102
}
330
C3
100
AcDbVisualStyle
  2
Wireframe
 70
     5
177
     2
291
     0
 71
     0
176
     1
 72
     2
176
     1
 73
     0
176
     1
 90
        0
176
     1
 40
0.6
176
     1
 41
30.0
176
     1
 63
     7
421
 16777215
176
     1
 74
     1
176
     1
 91
        4
176
     1
 64
     7
176
     1
 65
   257
176
     1
 75
     1
176
     1
175
     1
176
     1
 42
1.0
176
     1
 92
        0
176
     1
 66
   257
176
     1
 43
1.0
176
     1
 76
     1
176
     1
 77
     6
176
     1
 78
     2
176
     1
 67
     7
176
     1
 79
     3
176
     1
170
     0
176
     1
171
     0
176
     1
290
     0
176
     1
 93
        1
176
     1
 44
0.0
176
     1
173
     0
176
     1
1001
ACAD
1000
AcDbSavedByObjectVersion
1070
     0
  0
VISUALSTYLE
  5
D6
102
{ACAD_XDICTIONARY
360
355
102
}
102
{ACAD_REACTORS
330
C3
102
}
330
C3
100
AcDbVisualStyle
  2
X-Ray
 70
    25
177
     2
291
     0
 71
     2
176
     1
 72
     2
176
     1
 73
     1
176
     1
 90
        1
176
     1
 40
0.5
176
     1
 41
30.0
176
     1
 63
     7
421
 16777215
176
     1
 74
     1
176
     1
 91
        0
176
     1
 64
     7
176
     1
 65
   257
176
     1
 75
     1
176
     1
175
     1
176
     1
 42
1.0
176
     1
 92
        8
176
     1
 66
     7
176
     1
 43
1.0
176
     1
 76
     1
176
     1
 77
     6
176
     1
 78
     2
176
     1
 67
     7
176
     1
 79
     3
176
     1
170
     0
176
     1
171
     0
176
     1
290
     0
176
     1
 93
       13
176
     1
 44
0.0
176
     1
173
     0
176
     1
1001
ACAD
1000
AcDbSavedByObjectVersion
1070
     0
  0
DICTIONARYVAR
  5
32A
102
{ACAD_REACTORS
330
324
102
}
330
324
100
DictionaryVariables
280
     0
  1
1:1
  0
DICTIONARYVAR
  5
326
102
{ACAD_REACTORS
330
324
102
}
330
324
100
DictionaryVariables
280
     0
  1
STANDARD
  0
DICTIONARYVAR
  5
325
102
{ACAD_REACTORS
330
324
102
}
330
324
100
DictionaryVariables
280
     0
  1
STANDARD
  0
DICTIONARYVAR
  5
327
102
{ACAD_REACTORS
330
324
102
}
330
324
100
DictionaryVariables
280
     0
  1
Imperial24
  0
DICTIONARYVAR
  5
328
102
{ACAD_REACTORS
330
324
102
}
330
324
100
DictionaryVariables
280
     0
  1
Imperial24
  0
DICTIONARYVAR
  5
32C
102
{ACAD_REACTORS
330
324
102
}
330
324
100
DictionaryVariables
280
     0
  1
1
  0
DICTIONARYVAR
  5
32D
102
{ACAD_REACTORS
330
324
102
}
330
324
100
DictionaryVariables
280
     0
  1
15
  0
DICTIONARYVAR
  5
32B
102
{ACAD_REACTORS
330
324
102
}
330
324
100
DictionaryVariables
280
     0
  1
0
  0
DICTIONARYVAR
  5
329
102
{ACAD_REACTORS
330
324
102
}
330
324
100
DictionaryVariables
280
     0
  1
0
  0
DICTIONARY
  5
365
330
F6
100
AcDbDictionary
280
     1
281
     1
  3
ACAD_XREC_ROUNDTRIP
360
366
  0
DICTIONARY
  5
B4
330
B3
100
AcDbDictionary
280
     1
281
     1
  3
BUMPTILE
360
B6
  3
DIFFUSETILE
360
B5
  3
OPACITYTILE
360
B9
  3
REFLECTIONTILE
360
B8
  3
REFRACTIONTILE
360
BA
  3
SPECULARTILE
360
B7
  0
DICTIONARY
  5
AC
330
AB
100
AcDbDictionary
280
     1
281
     1
  3
BUMPTILE
360
AE
  3
DIFFUSETILE
360
AD
  3
OPACITYTILE
360
B1
  3
REFLECTIONTILE
360
B0
  3
REFRACTIONTILE
360
B2
  3
SPECULARTILE
360
AF
  0
DICTIONARY
  5
BC
330
BB
100
AcDbDictionary
280
     1
281
     1
  3
BUMPTILE
360
BE
  3
DIFFUSETILE
360
BD
  3
OPACITYTILE
360
C1
  3
REFLECTIONTILE
360
C0
  3
REFRACTIONTILE
360
C2
  3
SPECULARTILE
360
BF
  0
DICTIONARY
  5
361
330
F2
100
AcDbDictionary
280
     1
281
     1
  3
ACAD_XREC_ROUNDTRIP
360
362
  0
DICTIONARY
  5
363
330
F4
100
AcDbDictionary
280
     1
281
     1
  3
ACAD_XREC_ROUNDTRIP
360
364
  0
DICTIONARY
  5
32E
330
DE
100
AcDbDictionary
280
     1
281
     1
  3
ACAD_ROUNDTRIP_2008_TABLESTYLE_CELLSTYLEMAP
360
32F
  0
DICTIONARY
  5
33B
330
C9
100
AcDbDictionary
280
     1
281
     1
  3
ACAD_XREC_ROUNDTRIP
360
33C
  0
DICTIONARY
  5
339
330
C8
100
AcDbDictionary
280
     1
281
     1
  3
ACAD_XREC_ROUNDTRIP
360
33A
  0
DICTIONARY
  5
347
330
CF
100
AcDbDictionary
280
     1
281
     1
  3
ACAD_XREC_ROUNDTRIP
360
348
  0
DICTIONARY
  5
34F
330
D3
100
AcDbDictionary
280
     1
281
     1
  3
ACAD_XREC_ROUNDTRIP
360
350
  0
DICTIONARY
  5
341
330
CC
100
AcDbDictionary
280
     1
281
     1
  3
ACAD_XREC_ROUNDTRIP
360
342
  0
DICTIONARY
  5
345
330
CE
100
AcDbDictionary
280
     1
281
     1
  3
ACAD_XREC_ROUNDTRIP
360
346
  0
DICTIONARY
  5
35F
330
DB
100
AcDbDictionary
280
     1
281
     1
  3
ACAD_XREC_ROUNDTRIP
360
360
  0
DICTIONARY
  5
34D
330
D2
100
AcDbDictionary
280
     1
281
     1
  3
ACAD_XREC_ROUNDTRIP
360
34E
  0
DICTIONARY
  5
331
330
C4
100
AcDbDictionary
280
     1
281
     1
  3
ACAD_XREC_ROUNDTRIP
360
332
  0
DICTIONARY
  5
333
330
C5
100
AcDbDictionary
280
     1
281
     1
  3
ACAD_XREC_ROUNDTRIP
360
334
  0
DICTIONARY
  5
335
330
C6
100
AcDbDictionary
280
     1
281
     1
  3
ACAD_XREC_ROUNDTRIP
360
336
  0
DICTIONARY
  5
337
330
C7
100
AcDbDictionary
280
     1
281
     1
  3
ACAD_XREC_ROUNDTRIP
360
338
  0
DICTIONARY
  5
33F
330
CB
100
AcDbDictionary
280
     1
281
     1
  3
ACAD_XREC_ROUNDTRIP
360
340
  0
DICTIONARY
  5
35B
330
D9
100
AcDbDictionary
280
     1
281
     1
  3
ACAD_XREC_ROUNDTRIP
360
35C
  0
DICTIONARY
  5
34B
330
D1
100
AcDbDictionary
280
     1
281
     1
  3
ACAD_XREC_ROUNDTRIP
360
34C
  0
DICTIONARY
  5
35D
330
DA
100
AcDbDictionary
280
     1
281
     1
  3
ACAD_XREC_ROUNDTRIP
360
35E
  0
DICTIONARY
  5
343
330
CD
100
AcDbDictionary
280
     1
281
     1
  3
ACAD_XREC_ROUNDTRIP
360
344
  0
DICTIONARY
  5
359
330
D8
100
AcDbDictionary
280
     1
281
     1
  3
ACAD_XREC_ROUNDTRIP
360
35A
  0
DICTIONARY
  5
357
330
D7
100
AcDbDictionary
280
     1
281
     1
  3
ACAD_XREC_ROUNDTRIP
360
358
  0
DICTIONARY
  5
351
330
D4
100
AcDbDictionary
280
     1
281
     1
  3
ACAD_XREC_ROUNDTRIP
360
352
  0
DICTIONARY
  5
353
330
D5
100
AcDbDictionary
280
     1
281
     1
  3
ACAD_XREC_ROUNDTRIP
360
354
  0
DICTIONARY
  5
349
330
D0
100
AcDbDictionary
280
     1
281
     1
  3
ACAD_XREC_ROUNDTRIP
360
34A
  0
DICTIONARY
  5
33D
330
CA
100
AcDbDictionary
280
     1
281
     1
  3
ACAD_XREC_ROUNDTRIP
360
33E
  0
DICTIONARY
  5
355
330
D6
100
AcDbDictionary
280
     1
281
     1
  3
ACAD_XREC_ROUNDTRIP
360
356
  0
XRECORD
  5
366
102
{ACAD_REACTORS
330
365
102
}
330
365
100
AcDbXrecord
280
     1
102
DISPLAYNAME
  1
Imperial24
102
FLAGS
 90
        0
  0
XRECORD
  5
B6
102
{ACAD_REACTORS
330
B4
102
}
330
B4
100
AcDbXrecord
280
     1
270
     1
271
     1
  0
XRECORD
  5
B5
102
{ACAD_REACTORS
330
B4
102
}
330
B4
100
AcDbXrecord
280
     1
270
     1
271
     1
  0
XRECORD
  5
B9
102
{ACAD_REACTORS
330
B4
102
}
330
B4
100
AcDbXrecord
280
     1
270
     1
271
     1
  0
XRECORD
  5
B8
102
{ACAD_REACTORS
330
B4
102
}
330
B4
100
AcDbXrecord
280
     1
270
     1
271
     1
  0
XRECORD
  5
BA
102
{ACAD_REACTORS
330
B4
102
}
330
B4
100
AcDbXrecord
280
     1
270
     1
271
     1
  0
XRECORD
  5
B7
102
{ACAD_REACTORS
330
B4
102
}
330
B4
100
AcDbXrecord
280
     1
270
     1
271
     1
  0
XRECORD
  5
AE
102
{ACAD_REACTORS
330
AC
102
}
330
AC
100
AcDbXrecord
280
     1
270
     1
271
     1
  0
XRECORD
  5
AD
102
{ACAD_REACTORS
330
AC
102
}
330
AC
100
AcDbXrecord
280
     1
270
     1
271
     1
  0
XRECORD
  5
B1
102
{ACAD_REACTORS
330
AC
102
}
330
AC
100
AcDbXrecord
280
     1
270
     1
271
     1
  0
XRECORD
  5
B0
102
{ACAD_REACTORS
330
AC
102
}
330
AC
100
AcDbXrecord
280
     1
270
     1
271
     1
  0
XRECORD
  5
B2
102
{ACAD_REACTORS
330
AC
102
}
330
AC
100
AcDbXrecord
280
     1
270
     1
271
     1
  0
XRECORD
  5
AF
102
{ACAD_REACTORS
330
AC
102
}
330
AC
100
AcDbXrecord
280
     1
270
     1
271
     1
  0
XRECORD
  5
BE
102
{ACAD_REACTORS
330
BC
102
}
330
BC
100
AcDbXrecord
280
     1
270
     1
271
     1
  0
XRECORD
  5
BD
102
{ACAD_REACTORS
330
BC
102
}
330
BC
100
AcDbXrecord
280
     1
270
     1
271
     1
  0
XRECORD
  5
C1
102
{ACAD_REACTORS
330
BC
102
}
330
BC
100
AcDbXrecord
280
     1
270
     1
271
     1
  0
XRECORD
  5
C0
102
{ACAD_REACTORS
330
BC
102
}
330
BC
100
AcDbXrecord
280
     1
270
     1
271
     1
  0
XRECORD
  5
C2
102
{ACAD_REACTORS
330
BC
102
}
330
BC
100
AcDbXrecord
280
     1
270
     1
271
     1
  0
XRECORD
  5
BF
102
{ACAD_REACTORS
330
BC
102
}
330
BC
100
AcDbXrecord
280
     1
270
     1
271
     1
  0
XRECORD
  5
362
102
{ACAD_REACTORS
330
361
102
}
330
361
100
AcDbXrecord
280
     1
102
ACAD_ROUNDTRIP_2012_MLEADER_STYLE
298
     1
  0
XRECORD
  5
364
102
{ACAD_REACTORS
330
363
102
}
330
363
100
AcDbXrecord
280
     1
102
DISPLAYNAME
  1
Imperial24
102
FLAGS
 90
        0
  0
CELLSTYLEMAP
  5
32F
102
{ACAD_REACTORS
330
32E
102
}
330
32E
100
AcDbCellStyleMap
 90
        3
300
CELLSTYLE
  1
TABLEFORMAT_BEGIN
 90
        5
170
     1
 91
        0
 92
    32768
 62
   257
 93
        1
300
CONTENTFORMAT
  1
CONTENTFORMAT_BEGIN
 90
        0
 91
        0
 92
      512
 93
        0
300

 40
0.0
140
1.0
 94
        5
 62
     0
340
11
144
0.25
309
CONTENTFORMAT_END
171
     0
 94
        0
309
TABLEFORMAT_END
  1
CELLSTYLE_BEGIN
 90
        1
 91
        1
300
_TITLE
309
CELLSTYLE_END
300
CELLSTYLE
  1
TABLEFORMAT_BEGIN
 90
        5
170
     1
 91
        0
 92
        0
 62
   257
 93
        1
300
CONTENTFORMAT
  1
CONTENTFORMAT_BEGIN
 90
        0
 91
        0
 92
      512
 93
        0
300

 40
0.0
140
1.0
 94
        5
 62
     0
340
11
144
0.18
309
CONTENTFORMAT_END
171
     0
 94
        0
309
TABLEFORMAT_END
  1
CELLSTYLE_BEGIN
 90
        2
 91
        1
300
_HEADER
309
CELLSTYLE_END
300
CELLSTYLE
  1
TABLEFORMAT_BEGIN
 90
        5
170
     1
 91
        0
 92
        0
 62
   257
 93
        1
300
CONTENTFORMAT
  1
CONTENTFORMAT_BEGIN
 90
        0
 91
        0
 92
      512
 93
        0
300

 40
0.0
140
1.0
 94
        2
 62
     0
340
11
144
0.18
309
CONTENTFORMAT_END
171
     0
 94
        0
309
TABLEFORMAT_END
  1
CELLSTYLE_BEGIN
 90
        3
 91
        2
300
_DATA
309
CELLSTYLE_END
  0
XRECORD
  5
33C
102
{ACAD_REACTORS
330
33B
102
}
330
33B
100
AcDbXrecord
280
     1
102
RTVSPost2010Prop28
280
     1
102
RTVSPost2010PropOp28
 70
     1
102
RTVSPost2010Prop29
280
     1
102
RTVSPost2010PropOp29
 70
     1
102
RTVSPost2010Prop30
280
     0
102
RTVSPost2010PropOp30
 70
     1
102
RTVSPost2010Prop31
280
     0
102
RTVSPost2010PropOp31
 70
     1
102
RTVSPost2010Prop32
280
     0
102
RTVSPost2010PropOp32
 70
     1
102
RTVSPost2010Prop33
280
     0
102
RTVSPost2010PropOp33
 70
     1
102
RTVSPost2010Prop34
280
     0
102
RTVSPost2010PropOp34
 70
     1
102
RTVSPost2010Prop35
280
     0
102
RTVSPost2010PropOp35
 70
     1
102
RTVSPost2010Prop36
280
     0
102
RTVSPost2010PropOp36
 70
     1
102
RTVSPost2010Prop37
 90
       50
102
RTVSPost2010PropOp37
 70
     1
102
RTVSPost2010Prop38
140
0.0
102
RTVSPost2010PropOp38
 70
     1
102
RTVSPost2010Prop39
140
1.0
102
RTVSPost2010PropOp39
 70
     1
102
RTVSPost2010Prop40
 90
        0
102
RTVSPost2010PropOp40
 70
     1
102
RTVSPost2010Prop41ColorIndex
 90
       18
102
RTVSPost2010Prop41ColorRGB
 90
        0
102
RTVSPost2010PropOp41
 70
     1
102
RTVSPost2010Prop42
 90
       50
102
RTVSPost2010PropOp42
 70
     1
102
RTVSPost2010Prop43
 90
        3
102
RTVSPost2010PropOp43
 70
     1
102
RTVSPost2010Prop44ColorIndex
 90
        5
102
RTVSPost2010Prop44ColorRGB
 90
      255
102
RTVSPost2010PropOp44
 70
     1
102
RTVSPost2010Prop45
280
     0
102
RTVSPost2010PropOp45
 70
     1
102
RTVSPost2010Prop46
 90
       50
102
RTVSPost2010PropOp46
 70
     1
102
RTVSPost2010Prop47
 90
       50
102
RTVSPost2010PropOp47
 70
     1
102
RTVSPost2010Prop48
 90
       50
102
RTVSPost2010PropOp48
 70
     1
102
RTVSPost2010Prop49
280
     0
102
RTVSPost2010PropOp49
 70
     1
102
RTVSPost2010Prop50
 90
       50
102
RTVSPost2010PropOp50
 70
     1
102
RTVSPost2010Prop51ColorIndex
 90
      256
102
RTVSPost2010Prop51ColorRGB
 90
-16777216
102
RTVSPost2010PropOp51
 70
     0
102
RTVSPost2010Prop52
140
1.0
102
RTVSPost2010PropOp52
 70
     0
102
RTVSPost2010Prop53
 90
        2
102
RTVSPost2010PropOp53
 70
     1
102
RTVSPost2010Prop54
  1
strokes_ogs.tif
102
RTVSPost2010PropOp54
 70
     1
102
RTVSPost2010Prop55
280
     0
102
RTVSPost2010PropOp55
 70
     1
102
RTVSPost2010Prop56
140
1.0
102
RTVSPost2010PropOp56
 70
     1
102
RTVSPost2010Prop57
140
1.0
102
RTVSPost2010PropOp57
 70
     1
  0
XRECORD
  5
33A
102
{ACAD_REACTORS
330
339
102
}
330
339
100
AcDbXrecord
280
     1
102
RTVSPost2010Prop28
280
     0
102
RTVSPost2010PropOp28
 70
     1
102
RTVSPost2010Prop29
280
     1
102
RTVSPost2010PropOp29
 70
     1
102
RTVSPost2010Prop30
280
     1
102
RTVSPost2010PropOp30
 70
     1
102
RTVSPost2010Prop31
280
     0
102
RTVSPost2010PropOp31
 70
     1
102
RTVSPost2010Prop32
280
     0
102
RTVSPost2010PropOp32
 70
     1
102
RTVSPost2010Prop33
280
     0
102
RTVSPost2010PropOp33
 70
     1
102
RTVSPost2010Prop34
280
     0
102
RTVSPost2010PropOp34
 70
     1
102
RTVSPost2010Prop35
280
     0
102
RTVSPost2010PropOp35
 70
     1
102
RTVSPost2010Prop36
280
     0
102
RTVSPost2010PropOp36
 70
     1
102
RTVSPost2010Prop37
 90
       50
102
RTVSPost2010PropOp37
 70
     1
102
RTVSPost2010Prop38
140
0.0
102
RTVSPost2010PropOp38
 70
     1
102
RTVSPost2010Prop39
140
1.0
102
RTVSPost2010PropOp39
 70
     1
102
RTVSPost2010Prop40
 90
        0
102
RTVSPost2010PropOp40
 70
     1
102
RTVSPost2010Prop41ColorIndex
 90
       18
102
RTVSPost2010Prop41ColorRGB
 90
        0
102
RTVSPost2010PropOp41
 70
     1
102
RTVSPost2010Prop42
 90
       50
102
RTVSPost2010PropOp42
 70
     1
102
RTVSPost2010Prop43
 90
        3
102
RTVSPost2010PropOp43
 70
     1
102
RTVSPost2010Prop44ColorIndex
 90
        5
102
RTVSPost2010Prop44ColorRGB
 90
      255
102
RTVSPost2010PropOp44
 70
     1
102
RTVSPost2010Prop45
280
     0
102
RTVSPost2010PropOp45
 70
     1
102
RTVSPost2010Prop46
 90
       50
102
RTVSPost2010PropOp46
 70
     1
102
RTVSPost2010Prop47
 90
       50
102
RTVSPost2010PropOp47
 70
     1
102
RTVSPost2010Prop48
 90
       50
102
RTVSPost2010PropOp48
 70
     1
102
RTVSPost2010Prop49
280
     0
102
RTVSPost2010PropOp49
 70
     1
102
RTVSPost2010Prop50
 90
       50
102
RTVSPost2010PropOp50
 70
     1
102
RTVSPost2010Prop51ColorIndex
 90
      256
102
RTVSPost2010Prop51ColorRGB
 90
-16777216
102
RTVSPost2010PropOp51
 70
     0
102
RTVSPost2010Prop52
140
1.0
102
RTVSPost2010PropOp52
 70
     0
102
RTVSPost2010Prop53
 90
        2
102
RTVSPost2010PropOp53
 70
     1
102
RTVSPost2010Prop54
  1
strokes_ogs.tif
102
RTVSPost2010PropOp54
 70
     1
102
RTVSPost2010Prop55
280
     0
102
RTVSPost2010PropOp55
 70
     1
102
RTVSPost2010Prop56
140
1.0
102
RTVSPost2010PropOp56
 70
     1
102
RTVSPost2010Prop57
140
1.0
102
RTVSPost2010PropOp57
 70
     1
  0
XRECORD
  5
348
102
{ACAD_REACTORS
330
347
102
}
330
347
100
AcDbXrecord
280
     1
102
RTVSPost2010Prop28
280
     0
102
RTVSPost2010PropOp28
 70
     1
102
RTVSPost2010Prop29
280
     1
102
RTVSPost2010PropOp29
 70
     1
102
RTVSPost2010Prop30
280
     1
102
RTVSPost2010PropOp30
 70
     1
102
RTVSPost2010Prop31
280
     0
102
RTVSPost2010PropOp31
 70
     1
102
RTVSPost2010Prop32
280
     0
102
RTVSPost2010PropOp32
 70
     1
102
RTVSPost2010Prop33
280
     0
102
RTVSPost2010PropOp33
 70
     1
102
RTVSPost2010Prop34
280
     0
102
RTVSPost2010PropOp34
 70
     1
102
RTVSPost2010Prop35
280
     0
102
RTVSPost2010PropOp35
 70
     1
102
RTVSPost2010Prop36
280
     0
102
RTVSPost2010PropOp36
 70
     1
102
RTVSPost2010Prop37
 90
       50
102
RTVSPost2010PropOp37
 70
     1
102
RTVSPost2010Prop38
140
0.0
102
RTVSPost2010PropOp38
 70
     1
102
RTVSPost2010Prop39
140
1.0
102
RTVSPost2010PropOp39
 70
     1
102
RTVSPost2010Prop40
 90
        0
102
RTVSPost2010PropOp40
 70
     1
102
RTVSPost2010Prop41ColorIndex
 90
       18
102
RTVSPost2010Prop41ColorRGB
 90
        0
102
RTVSPost2010PropOp41
 70
     1
102
RTVSPost2010Prop42
 90
       50
102
RTVSPost2010PropOp42
 70
     1
102
RTVSPost2010Prop43
 90
        3
102
RTVSPost2010PropOp43
 70
     1
102
RTVSPost2010Prop44ColorIndex
 90
        5
102
RTVSPost2010Prop44ColorRGB
 90
      255
102
RTVSPost2010PropOp44
 70
     1
102
RTVSPost2010Prop45
280
     0
102
RTVSPost2010PropOp45
 70
     1
102
RTVSPost2010Prop46
 90
       50
102
RTVSPost2010PropOp46
 70
     1
102
RTVSPost2010Prop47
 90
       50
102
RTVSPost2010PropOp47
 70
     1
102
RTVSPost2010Prop48
 90
       50
102
RTVSPost2010PropOp48
 70
     1
102
RTVSPost2010Prop49
280
     0
102
RTVSPost2010PropOp49
 70
     1
102
RTVSPost2010Prop50
 90
       50
102
RTVSPost2010PropOp50
 70
     1
102
RTVSPost2010Prop51ColorIndex
 90
      256
102
RTVSPost2010Prop51ColorRGB
 90
-16777216
102
RTVSPost2010PropOp51
 70
     0
102
RTVSPost2010Prop52
140
1.0
102
RTVSPost2010PropOp52
 70
     0
102
RTVSPost2010Prop53
 90
        2
102
RTVSPost2010PropOp53
 70
     1
102
RTVSPost2010Prop54
  1
strokes_ogs.tif
102
RTVSPost2010PropOp54
 70
     1
102
RTVSPost2010Prop55
280
     0
102
RTVSPost2010PropOp55
 70
     1
102
RTVSPost2010Prop56
140
1.0
102
RTVSPost2010PropOp56
 70
     1
102
RTVSPost2010Prop57
140
1.0
102
RTVSPost2010PropOp57
 70
     1
  0
XRECORD
  5
350
102
{ACAD_REACTORS
330
34F
102
}
330
34F
100
AcDbXrecord
280
     1
102
RTVSPost2010Prop28
280
     0
102
RTVSPost2010PropOp28
 70
     1
102
RTVSPost2010Prop29
280
     1
102
RTVSPost2010PropOp29
 70
     1
102
RTVSPost2010Prop30
280
     1
102
RTVSPost2010PropOp30
 70
     1
102
RTVSPost2010Prop31
280
     0
102
RTVSPost2010PropOp31
 70
     1
102
RTVSPost2010Prop32
280
     0
102
RTVSPost2010PropOp32
 70
     1
102
RTVSPost2010Prop33
280
     0
102
RTVSPost2010PropOp33
 70
     1
102
RTVSPost2010Prop34
280
     0
102
RTVSPost2010PropOp34
 70
     1
102
RTVSPost2010Prop35
280
     0
102
RTVSPost2010PropOp35
 70
     1
102
RTVSPost2010Prop36
280
     0
102
RTVSPost2010PropOp36
 70
     1
102
RTVSPost2010Prop37
 90
       50
102
RTVSPost2010PropOp37
 70
     1
102
RTVSPost2010Prop38
140
0.0
102
RTVSPost2010PropOp38
 70
     1
102
RTVSPost2010Prop39
140
1.0
102
RTVSPost2010PropOp39
 70
     1
102
RTVSPost2010Prop40
 90
        0
102
RTVSPost2010PropOp40
 70
     1
102
RTVSPost2010Prop41ColorIndex
 90
       18
102
RTVSPost2010Prop41ColorRGB
 90
        0
102
RTVSPost2010PropOp41
 70
     1
102
RTVSPost2010Prop42
 90
       50
102
RTVSPost2010PropOp42
 70
     1
102
RTVSPost2010Prop43
 90
        3
102
RTVSPost2010PropOp43
 70
     1
102
RTVSPost2010Prop44ColorIndex
 90
        5
102
RTVSPost2010Prop44ColorRGB
 90
      255
102
RTVSPost2010PropOp44
 70
     1
102
RTVSPost2010Prop45
280
     0
102
RTVSPost2010PropOp45
 70
     1
102
RTVSPost2010Prop46
 90
       50
102
RTVSPost2010PropOp46
 70
     1
102
RTVSPost2010Prop47
 90
       50
102
RTVSPost2010PropOp47
 70
     1
102
RTVSPost2010Prop48
 90
       50
102
RTVSPost2010PropOp48
 70
     1
102
RTVSPost2010Prop49
280
     0
102
RTVSPost2010PropOp49
 70
     1
102
RTVSPost2010Prop50
 90
       50
102
RTVSPost2010PropOp50
 70
     1
102
RTVSPost2010Prop51ColorIndex
 90
      256
102
RTVSPost2010Prop51ColorRGB
 90
-16777216
102
RTVSPost2010PropOp51
 70
     0
102
RTVSPost2010Prop52
140
1.0
102
RTVSPost2010PropOp52
 70
     0
102
RTVSPost2010Prop53
 90
        2
102
RTVSPost2010PropOp53
 70
     1
102
RTVSPost2010Prop54
  1
strokes_ogs.tif
102
RTVSPost2010PropOp54
 70
     1
102
RTVSPost2010Prop55
280
     0
102
RTVSPost2010PropOp55
 70
     1
102
RTVSPost2010Prop56
140
1.0
102
RTVSPost2010PropOp56
 70
     1
102
RTVSPost2010Prop57
140
1.0
102
RTVSPost2010PropOp57
 70
     1
  0
XRECORD
  5
342
102
{ACAD_REACTORS
330
341
102
}
330
341
100
AcDbXrecord
280
     1
102
RTVSPost2010Prop28
280
     0
102
RTVSPost2010PropOp28
 70
     1
102
RTVSPost2010Prop29
280
     1
102
RTVSPost2010PropOp29
 70
     1
102
RTVSPost2010Prop30
280
     1
102
RTVSPost2010PropOp30
 70
     1
102
RTVSPost2010Prop31
280
     0
102
RTVSPost2010PropOp31
 70
     1
102
RTVSPost2010Prop32
280
     0
102
RTVSPost2010PropOp32
 70
     1
102
RTVSPost2010Prop33
280
     0
102
RTVSPost2010PropOp33
 70
     1
102
RTVSPost2010Prop34
280
     0
102
RTVSPost2010PropOp34
 70
     1
102
RTVSPost2010Prop35
280
     0
102
RTVSPost2010PropOp35
 70
     1
102
RTVSPost2010Prop36
280
     0
102
RTVSPost2010PropOp36
 70
     1
102
RTVSPost2010Prop37
 90
       50
102
RTVSPost2010PropOp37
 70
     1
102
RTVSPost2010Prop38
140
0.0
102
RTVSPost2010PropOp38
 70
     1
102
RTVSPost2010Prop39
140
1.0
102
RTVSPost2010PropOp39
 70
     1
102
RTVSPost2010Prop40
 90
        0
102
RTVSPost2010PropOp40
 70
     1
102
RTVSPost2010Prop41ColorIndex
 90
       18
102
RTVSPost2010Prop41ColorRGB
 90
        0
102
RTVSPost2010PropOp41
 70
     1
102
RTVSPost2010Prop42
 90
       50
102
RTVSPost2010PropOp42
 70
     1
102
RTVSPost2010Prop43
 90
        3
102
RTVSPost2010PropOp43
 70
     1
102
RTVSPost2010Prop44ColorIndex
 90
        5
102
RTVSPost2010Prop44ColorRGB
 90
      255
102
RTVSPost2010PropOp44
 70
     1
102
RTVSPost2010Prop45
280
     0
102
RTVSPost2010PropOp45
 70
     1
102
RTVSPost2010Prop46
 90
       50
102
RTVSPost2010PropOp46
 70
     1
102
RTVSPost2010Prop47
 90
       50
102
RTVSPost2010PropOp47
 70
     1
102
RTVSPost2010Prop48
 90
       50
102
RTVSPost2010PropOp48
 70
     1
102
RTVSPost2010Prop49
280
     0
102
RTVSPost2010PropOp49
 70
     1
102
RTVSPost2010Prop50
 90
       50
102
RTVSPost2010PropOp50
 70
     1
102
RTVSPost2010Prop51ColorIndex
 90
      256
102
RTVSPost2010Prop51ColorRGB
 90
-16777216
102
RTVSPost2010PropOp51
 70
     0
102
RTVSPost2010Prop52
140
1.0
102
RTVSPost2010PropOp52
 70
     0
102
RTVSPost2010Prop53
 90
        2
102
RTVSPost2010PropOp53
 70
     1
102
RTVSPost2010Prop54
  1
strokes_ogs.tif
102
RTVSPost2010PropOp54
 70
     1
102
RTVSPost2010Prop55
280
     0
102
RTVSPost2010PropOp55
 70
     1
102
RTVSPost2010Prop56
140
1.0
102
RTVSPost2010PropOp56
 70
     1
102
RTVSPost2010Prop57
140
1.0
102
RTVSPost2010PropOp57
 70
     1
  0
XRECORD
  5
346
102
{ACAD_REACTORS
330
345
102
}
330
345
100
AcDbXrecord
280
     1
102
RTVSPost2010Prop28
280
     0
102
RTVSPost2010PropOp28
 70
     1
102
RTVSPost2010Prop29
280
     1
102
RTVSPost2010PropOp29
 70
     1
102
RTVSPost2010Prop30
280
     1
102
RTVSPost2010PropOp30
 70
     1
102
RTVSPost2010Prop31
280
     0
102
RTVSPost2010PropOp31
 70
     1
102
RTVSPost2010Prop32
280
     0
102
RTVSPost2010PropOp32
 70
     1
102
RTVSPost2010Prop33
280
     0
102
RTVSPost2010PropOp33
 70
     1
102
RTVSPost2010Prop34
280
     0
102
RTVSPost2010PropOp34
 70
     1
102
RTVSPost2010Prop35
280
     0
102
RTVSPost2010PropOp35
 70
     1
102
RTVSPost2010Prop36
280
     0
102
RTVSPost2010PropOp36
 70
     1
102
RTVSPost2010Prop37
 90
       50
102
RTVSPost2010PropOp37
 70
     1
102
RTVSPost2010Prop38
140
0.0
102
RTVSPost2010PropOp38
 70
     1
102
RTVSPost2010Prop39
140
1.0
102
RTVSPost2010PropOp39
 70
     1
102
RTVSPost2010Prop40
 90
        0
102
RTVSPost2010PropOp40
 70
     1
102
RTVSPost2010Prop41ColorIndex
 90
       18
102
RTVSPost2010Prop41ColorRGB
 90
        0
102
RTVSPost2010PropOp41
 70
     1
102
RTVSPost2010Prop42
 90
       50
102
RTVSPost2010PropOp42
 70
     1
102
RTVSPost2010Prop43
 90
        3
102
RTVSPost2010PropOp43
 70
     1
102
RTVSPost2010Prop44ColorIndex
 90
        5
102
RTVSPost2010Prop44ColorRGB
 90
      255
102
RTVSPost2010PropOp44
 70
     1
102
RTVSPost2010Prop45
280
     0
102
RTVSPost2010PropOp45
 70
     1
102
RTVSPost2010Prop46
 90
       50
102
RTVSPost2010PropOp46
 70
     1
102
RTVSPost2010Prop47
 90
       50
102
RTVSPost2010PropOp47
 70
     1
102
RTVSPost2010Prop48
 90
       50
102
RTVSPost2010PropOp48
 70
     1
102
RTVSPost2010Prop49
280
     0
102
RTVSPost2010PropOp49
 70
     1
102
RTVSPost2010Prop50
 90
       50
102
RTVSPost2010PropOp50
 70
     1
102
RTVSPost2010Prop51ColorIndex
 90
      256
102
RTVSPost2010Prop51ColorRGB
 90
-16777216
102
RTVSPost2010PropOp51
 70
     0
102
RTVSPost2010Prop52
140
1.0
102
RTVSPost2010PropOp52
 70
     0
102
RTVSPost2010Prop53
 90
        2
102
RTVSPost2010PropOp53
 70
     1
102
RTVSPost2010Prop54
  1
strokes_ogs.tif
102
RTVSPost2010PropOp54
 70
     1
102
RTVSPost2010Prop55
280
     0
102
RTVSPost2010PropOp55
 70
     1
102
RTVSPost2010Prop56
140
1.0
102
RTVSPost2010PropOp56
 70
     1
102
RTVSPost2010Prop57
140
1.0
102
RTVSPost2010PropOp57
 70
     1
  0
XRECORD
  5
360
102
{ACAD_REACTORS
330
35F
102
}
330
35F
100
AcDbXrecord
280
     1
102
RTVSPost2010Prop28
280
     0
102
RTVSPost2010PropOp28
 70
     0
102
RTVSPost2010Prop29
280
     1
102
RTVSPost2010PropOp29
 70
     0
102
RTVSPost2010Prop30
280
     1
102
RTVSPost2010PropOp30
 70
     0
102
RTVSPost2010Prop31
280
     0
102
RTVSPost2010PropOp31
 70
     0
102
RTVSPost2010Prop32
280
     0
102
RTVSPost2010PropOp32
 70
     0
102
RTVSPost2010Prop33
280
     0
102
RTVSPost2010PropOp33
 70
     0
102
RTVSPost2010Prop34
280
     0
102
RTVSPost2010PropOp34
 70
     0
102
RTVSPost2010Prop35
280
     0
102
RTVSPost2010PropOp35
 70
     0
102
RTVSPost2010Prop36
280
     0
102
RTVSPost2010PropOp36
 70
     0
102
RTVSPost2010Prop37
 90
       50
102
RTVSPost2010PropOp37
 70
     0
102
RTVSPost2010Prop38
140
0.0
102
RTVSPost2010PropOp38
 70
     0
102
RTVSPost2010Prop39
140
1.0
102
RTVSPost2010PropOp39
 70
     0
102
RTVSPost2010Prop40
 90
        0
102
RTVSPost2010PropOp40
 70
     0
102
RTVSPost2010Prop41ColorIndex
 90
       18
102
RTVSPost2010Prop41ColorRGB
 90
        0
102
RTVSPost2010PropOp41
 70
     0
102
RTVSPost2010Prop42
 90
       50
102
RTVSPost2010PropOp42
 70
     0
102
RTVSPost2010Prop43
 90
        3
102
RTVSPost2010PropOp43
 70
     0
102
RTVSPost2010Prop44ColorIndex
 90
        5
102
RTVSPost2010Prop44ColorRGB
 90
      255
102
RTVSPost2010PropOp44
 70
     0
102
RTVSPost2010Prop45
280
     0
102
RTVSPost2010PropOp45
 70
     0
102
RTVSPost2010Prop46
 90
       50
102
RTVSPost2010PropOp46
 70
     0
102
RTVSPost2010Prop47
 90
       50
102
RTVSPost2010PropOp47
 70
     0
102
RTVSPost2010Prop48
 90
       50
102
RTVSPost2010PropOp48
 70
     0
102
RTVSPost2010Prop49
280
     0
102
RTVSPost2010PropOp49
 70
     0
102
RTVSPost2010Prop50
 90
       50
102
RTVSPost2010PropOp50
 70
     0
102
RTVSPost2010Prop51ColorIndex
 90
      256
102
RTVSPost2010Prop51ColorRGB
 90
-16777216
102
RTVSPost2010PropOp51
 70
     0
102
RTVSPost2010Prop52
140
1.0
102
RTVSPost2010PropOp52
 70
     0
102
RTVSPost2010Prop53
 90
        2
102
RTVSPost2010PropOp53
 70
     0
102
RTVSPost2010Prop54
  1
strokes_ogs.tif
102
RTVSPost2010PropOp54
 70
     0
102
RTVSPost2010Prop55
280
     0
102
RTVSPost2010PropOp55
 70
     0
102
RTVSPost2010Prop56
140
1.0
102
RTVSPost2010PropOp56
 70
     0
102
RTVSPost2010Prop57
140
1.0
102
RTVSPost2010PropOp57
 70
     0
  0
XRECORD
  5
34E
102
{ACAD_REACTORS
330
34D
102
}
330
34D
100
AcDbXrecord
280
     1
102
RTVSPost2010Prop28
280
     0
102
RTVSPost2010PropOp28
 70
     1
102
RTVSPost2010Prop29
280
     1
102
RTVSPost2010PropOp29
 70
     1
102
RTVSPost2010Prop30
280
     1
102
RTVSPost2010PropOp30
 70
     1
102
RTVSPost2010Prop31
280
     0
102
RTVSPost2010PropOp31
 70
     1
102
RTVSPost2010Prop32
280
     0
102
RTVSPost2010PropOp32
 70
     1
102
RTVSPost2010Prop33
280
     0
102
RTVSPost2010PropOp33
 70
     1
102
RTVSPost2010Prop34
280
     0
102
RTVSPost2010PropOp34
 70
     1
102
RTVSPost2010Prop35
280
     0
102
RTVSPost2010PropOp35
 70
     1
102
RTVSPost2010Prop36
280
     0
102
RTVSPost2010PropOp36
 70
     1
102
RTVSPost2010Prop37
 90
       50
102
RTVSPost2010PropOp37
 70
     1
102
RTVSPost2010Prop38
140
0.0
102
RTVSPost2010PropOp38
 70
     1
102
RTVSPost2010Prop39
140
1.0
102
RTVSPost2010PropOp39
 70
     1
102
RTVSPost2010Prop40
 90
        0
102
RTVSPost2010PropOp40
 70
     1
102
RTVSPost2010Prop41ColorIndex
 90
       18
102
RTVSPost2010Prop41ColorRGB
 90
        0
102
RTVSPost2010PropOp41
 70
     1
102
RTVSPost2010Prop42
 90
       50
102
RTVSPost2010PropOp42
 70
     1
102
RTVSPost2010Prop43
 90
        3
102
RTVSPost2010PropOp43
 70
     1
102
RTVSPost2010Prop44ColorIndex
 90
        5
102
RTVSPost2010Prop44ColorRGB
 90
      255
102
RTVSPost2010PropOp44
 70
     1
102
RTVSPost2010Prop45
280
     0
102
RTVSPost2010PropOp45
 70
     1
102
RTVSPost2010Prop46
 90
       50
102
RTVSPost2010PropOp46
 70
     1
102
RTVSPost2010Prop47
 90
       50
102
RTVSPost2010PropOp47
 70
     1
102
RTVSPost2010Prop48
 90
       50
102
RTVSPost2010PropOp48
 70
     1
102
RTVSPost2010Prop49
280
     0
102
RTVSPost2010PropOp49
 70
     1
102
RTVSPost2010Prop50
 90
       50
102
RTVSPost2010PropOp50
 70
     1
102
RTVSPost2010Prop51ColorIndex
 90
      256
102
RTVSPost2010Prop51ColorRGB
 90
-16777216
102
RTVSPost2010PropOp51
 70
     0
102
RTVSPost2010Prop52
140
1.0
102
RTVSPost2010PropOp52
 70
     0
102
RTVSPost2010Prop53
 90
        2
102
RTVSPost2010PropOp53
 70
     1
102
RTVSPost2010Prop54
  1
strokes_ogs.tif
102
RTVSPost2010PropOp54
 70
     1
102
RTVSPost2010Prop55
280
     0
102
RTVSPost2010PropOp55
 70
     1
102
RTVSPost2010Prop56
140
1.0
102
RTVSPost2010PropOp56
 70
     1
102
RTVSPost2010Prop57
140
1.0
102
RTVSPost2010PropOp57
 70
     1
  0
XRECORD
  5
332
102
{ACAD_REACTORS
330
331
102
}
330
331
100
AcDbXrecord
280
     1
102
RTVSPost2010Prop28
280
     0
102
RTVSPost2010PropOp28
 70
     1
102
RTVSPost2010Prop29
280
     1
102
RTVSPost2010PropOp29
 70
     1
102
RTVSPost2010Prop30
280
     1
102
RTVSPost2010PropOp30
 70
     1
102
RTVSPost2010Prop31
280
     0
102
RTVSPost2010PropOp31
 70
     1
102
RTVSPost2010Prop32
280
     0
102
RTVSPost2010PropOp32
 70
     1
102
RTVSPost2010Prop33
280
     0
102
RTVSPost2010PropOp33
 70
     1
102
RTVSPost2010Prop34
280
     0
102
RTVSPost2010PropOp34
 70
     1
102
RTVSPost2010Prop35
280
     0
102
RTVSPost2010PropOp35
 70
     1
102
RTVSPost2010Prop36
280
     0
102
RTVSPost2010PropOp36
 70
     1
102
RTVSPost2010Prop37
 90
       50
102
RTVSPost2010PropOp37
 70
     1
102
RTVSPost2010Prop38
140
0.0
102
RTVSPost2010PropOp38
 70
     1
102
RTVSPost2010Prop39
140
1.0
102
RTVSPost2010PropOp39
 70
     1
102
RTVSPost2010Prop40
 90
        0
102
RTVSPost2010PropOp40
 70
     1
102
RTVSPost2010Prop41ColorIndex
 90
       18
102
RTVSPost2010Prop41ColorRGB
 90
        0
102
RTVSPost2010PropOp41
 70
     1
102
RTVSPost2010Prop42
 90
       50
102
RTVSPost2010PropOp42
 70
     1
102
RTVSPost2010Prop43
 90
        3
102
RTVSPost2010PropOp43
 70
     1
102
RTVSPost2010Prop44ColorIndex
 90
        5
102
RTVSPost2010Prop44ColorRGB
 90
      255
102
RTVSPost2010PropOp44
 70
     1
102
RTVSPost2010Prop45
280
     0
102
RTVSPost2010PropOp45
 70
     1
102
RTVSPost2010Prop46
 90
       50
102
RTVSPost2010PropOp46
 70
     1
102
RTVSPost2010Prop47
 90
       50
102
RTVSPost2010PropOp47
 70
     1
102
RTVSPost2010Prop48
 90
       50
102
RTVSPost2010PropOp48
 70
     1
102
RTVSPost2010Prop49
280
     0
102
RTVSPost2010PropOp49
 70
     1
102
RTVSPost2010Prop50
 90
       50
102
RTVSPost2010PropOp50
 70
     1
102
RTVSPost2010Prop51ColorIndex
 90
      256
102
RTVSPost2010Prop51ColorRGB
 90
-16777216
102
RTVSPost2010PropOp51
 70
     0
102
RTVSPost2010Prop52
140
1.0
102
RTVSPost2010PropOp52
 70
     0
102
RTVSPost2010Prop53
 90
        2
102
RTVSPost2010PropOp53
 70
     1
102
RTVSPost2010Prop54
  1
strokes_ogs.tif
102
RTVSPost2010PropOp54
 70
     1
102
RTVSPost2010Prop55
280
     0
102
RTVSPost2010PropOp55
 70
     1
102
RTVSPost2010Prop56
140
1.0
102
RTVSPost2010PropOp56
 70
     1
102
RTVSPost2010Prop57
140
1.0
102
RTVSPost2010PropOp57
 70
     1
  0
XRECORD
  5
334
102
{ACAD_REACTORS
330
333
102
}
330
333
100
AcDbXrecord
280
     1
102
RTVSPost2010Prop28
280
     0
102
RTVSPost2010PropOp28
 70
     1
102
RTVSPost2010Prop29
280
     1
102
RTVSPost2010PropOp29
 70
     1
102
RTVSPost2010Prop30
280
     1
102
RTVSPost2010PropOp30
 70
     1
102
RTVSPost2010Prop31
280
     0
102
RTVSPost2010PropOp31
 70
     1
102
RTVSPost2010Prop32
280
     0
102
RTVSPost2010PropOp32
 70
     1
102
RTVSPost2010Prop33
280
     0
102
RTVSPost2010PropOp33
 70
     1
102
RTVSPost2010Prop34
280
     0
102
RTVSPost2010PropOp34
 70
     1
102
RTVSPost2010Prop35
280
     0
102
RTVSPost2010PropOp35
 70
     1
102
RTVSPost2010Prop36
280
     0
102
RTVSPost2010PropOp36
 70
     1
102
RTVSPost2010Prop37
 90
       50
102
RTVSPost2010PropOp37
 70
     1
102
RTVSPost2010Prop38
140
0.0
102
RTVSPost2010PropOp38
 70
     1
102
RTVSPost2010Prop39
140
1.0
102
RTVSPost2010PropOp39
 70
     1
102
RTVSPost2010Prop40
 90
        0
102
RTVSPost2010PropOp40
 70
     1
102
RTVSPost2010Prop41ColorIndex
 90
       18
102
RTVSPost2010Prop41ColorRGB
 90
        0
102
RTVSPost2010PropOp41
 70
     1
102
RTVSPost2010Prop42
 90
       50
102
RTVSPost2010PropOp42
 70
     1
102
RTVSPost2010Prop43
 90
        3
102
RTVSPost2010PropOp43
 70
     1
102
RTVSPost2010Prop44ColorIndex
 90
        5
102
RTVSPost2010Prop44ColorRGB
 90
      255
102
RTVSPost2010PropOp44
 70
     1
102
RTVSPost2010Prop45
280
     0
102
RTVSPost2010PropOp45
 70
     1
102
RTVSPost2010Prop46
 90
       50
102
RTVSPost2010PropOp46
 70
     1
102
RTVSPost2010Prop47
 90
       50
102
RTVSPost2010PropOp47
 70
     1
102
RTVSPost2010Prop48
 90
       50
102
RTVSPost2010PropOp48
 70
     1
102
RTVSPost2010Prop49
280
     0
102
RTVSPost2010PropOp49
 70
     1
102
RTVSPost2010Prop50
 90
       50
102
RTVSPost2010PropOp50
 70
     1
102
RTVSPost2010Prop51ColorIndex
 90
      256
102
RTVSPost2010Prop51ColorRGB
 90
-16777216
102
RTVSPost2010PropOp51
 70
     0
102
RTVSPost2010Prop52
140
1.0
102
RTVSPost2010PropOp52
 70
     0
102
RTVSPost2010Prop53
 90
        2
102
RTVSPost2010PropOp53
 70
     1
102
RTVSPost2010Prop54
  1
strokes_ogs.tif
102
RTVSPost2010PropOp54
 70
     1
102
RTVSPost2010Prop55
280
     0
102
RTVSPost2010PropOp55
 70
     1
102
RTVSPost2010Prop56
140
1.0
102
RTVSPost2010PropOp56
 70
     1
102
RTVSPost2010Prop57
140
1.0
102
RTVSPost2010PropOp57
 70
     1
  0
XRECORD
  5
336
102
{ACAD_REACTORS
330
335
102
}
330
335
100
AcDbXrecord
280
     1
102
RTVSPost2010Prop28
280
     0
102
RTVSPost2010PropOp28
 70
     1
102
RTVSPost2010Prop29
280
     1
102
RTVSPost2010PropOp29
 70
     1
102
RTVSPost2010Prop30
280
     1
102
RTVSPost2010PropOp30
 70
     1
102
RTVSPost2010Prop31
280
     0
102
RTVSPost2010PropOp31
 70
     1
102
RTVSPost2010Prop32
280
     0
102
RTVSPost2010PropOp32
 70
     1
102
RTVSPost2010Prop33
280
     0
102
RTVSPost2010PropOp33
 70
     1
102
RTVSPost2010Prop34
280
     0
102
RTVSPost2010PropOp34
 70
     1
102
RTVSPost2010Prop35
280
     0
102
RTVSPost2010PropOp35
 70
     1
102
RTVSPost2010Prop36
280
     0
102
RTVSPost2010PropOp36
 70
     1
102
RTVSPost2010Prop37
 90
       50
102
RTVSPost2010PropOp37
 70
     1
102
RTVSPost2010Prop38
140
0.0
102
RTVSPost2010PropOp38
 70
     1
102
RTVSPost2010Prop39
140
1.0
102
RTVSPost2010PropOp39
 70
     1
102
RTVSPost2010Prop40
 90
        0
102
RTVSPost2010PropOp40
 70
     1
102
RTVSPost2010Prop41ColorIndex
 90
       18
102
RTVSPost2010Prop41ColorRGB
 90
        0
102
RTVSPost2010PropOp41
 70
     1
102
RTVSPost2010Prop42
 90
       50
102
RTVSPost2010PropOp42
 70
     1
102
RTVSPost2010Prop43
 90
        3
102
RTVSPost2010PropOp43
 70
     1
102
RTVSPost2010Prop44ColorIndex
 90
        5
102
RTVSPost2010Prop44ColorRGB
 90
      255
102
RTVSPost2010PropOp44
 70
     1
102
RTVSPost2010Prop45
280
     0
102
RTVSPost2010PropOp45
 70
     1
102
RTVSPost2010Prop46
 90
       50
102
RTVSPost2010PropOp46
 70
     1
102
RTVSPost2010Prop47
 90
       50
102
RTVSPost2010PropOp47
 70
     1
102
RTVSPost2010Prop48
 90
       50
102
RTVSPost2010PropOp48
 70
     1
102
RTVSPost2010Prop49
280
     0
102
RTVSPost2010PropOp49
 70
     1
102
RTVSPost2010Prop50
 90
       50
102
RTVSPost2010PropOp50
 70
     1
102
RTVSPost2010Prop51ColorIndex
 90
      256
102
RTVSPost2010Prop51ColorRGB
 90
-16777216
102
RTVSPost2010PropOp51
 70
     0
102
RTVSPost2010Prop52
140
1.0
102
RTVSPost2010PropOp52
 70
     0
102
RTVSPost2010Prop53
 90
        2
102
RTVSPost2010PropOp53
 70
     1
102
RTVSPost2010Prop54
  1
strokes_ogs.tif
102
RTVSPost2010PropOp54
 70
     1
102
RTVSPost2010Prop55
280
     0
102
RTVSPost2010PropOp55
 70
     1
102
RTVSPost2010Prop56
140
1.0
102
RTVSPost2010PropOp56
 70
     1
102
RTVSPost2010Prop57
140
1.0
102
RTVSPost2010PropOp57
 70
     1
  0
XRECORD
  5
338
102
{ACAD_REACTORS
330
337
102
}
330
337
100
AcDbXrecord
280
     1
102
RTVSPost2010Prop28
280
     0
102
RTVSPost2010PropOp28
 70
     1
102
RTVSPost2010Prop29
280
     1
102
RTVSPost2010PropOp29
 70
     1
102
RTVSPost2010Prop30
280
     1
102
RTVSPost2010PropOp30
 70
     1
102
RTVSPost2010Prop31
280
     0
102
RTVSPost2010PropOp31
 70
     1
102
RTVSPost2010Prop32
280
     0
102
RTVSPost2010PropOp32
 70
     1
102
RTVSPost2010Prop33
280
     0
102
RTVSPost2010PropOp33
 70
     1
102
RTVSPost2010Prop34
280
     0
102
RTVSPost2010PropOp34
 70
     1
102
RTVSPost2010Prop35
280
     0
102
RTVSPost2010PropOp35
 70
     1
102
RTVSPost2010Prop36
280
     0
102
RTVSPost2010PropOp36
 70
     1
102
RTVSPost2010Prop37
 90
       50
102
RTVSPost2010PropOp37
 70
     1
102
RTVSPost2010Prop38
140
0.0
102
RTVSPost2010PropOp38
 70
     1
102
RTVSPost2010Prop39
140
1.0
102
RTVSPost2010PropOp39
 70
     1
102
RTVSPost2010Prop40
 90
        0
102
RTVSPost2010PropOp40
 70
     1
102
RTVSPost2010Prop41ColorIndex
 90
       18
102
RTVSPost2010Prop41ColorRGB
 90
        0
102
RTVSPost2010PropOp41
 70
     1
102
RTVSPost2010Prop42
 90
       50
102
RTVSPost2010PropOp42
 70
     1
102
RTVSPost2010Prop43
 90
        3
102
RTVSPost2010PropOp43
 70
     1
102
RTVSPost2010Prop44ColorIndex
 90
        5
102
RTVSPost2010Prop44ColorRGB
 90
      255
102
RTVSPost2010PropOp44
 70
     1
102
RTVSPost2010Prop45
280
     0
102
RTVSPost2010PropOp45
 70
     1
102
RTVSPost2010Prop46
 90
       50
102
RTVSPost2010PropOp46
 70
     1
102
RTVSPost2010Prop47
 90
       50
102
RTVSPost2010PropOp47
 70
     1
102
RTVSPost2010Prop48
 90
       50
102
RTVSPost2010PropOp48
 70
     1
102
RTVSPost2010Prop49
280
     0
102
RTVSPost2010PropOp49
 70
     1
102
RTVSPost2010Prop50
 90
       50
102
RTVSPost2010PropOp50
 70
     1
102
RTVSPost2010Prop51ColorIndex
 90
      256
102
RTVSPost2010Prop51ColorRGB
 90
-16777216
102
RTVSPost2010PropOp51
 70
     0
102
RTVSPost2010Prop52
140
1.0
102
RTVSPost2010PropOp52
 70
     0
102
RTVSPost2010Prop53
 90
        2
102
RTVSPost2010PropOp53
 70
     1
102
RTVSPost2010Prop54
  1
strokes_ogs.tif
102
RTVSPost2010PropOp54
 70
     1
102
RTVSPost2010Prop55
280
     0
102
RTVSPost2010PropOp55
 70
     1
102
RTVSPost2010Prop56
140
1.0
102
RTVSPost2010PropOp56
 70
     1
102
RTVSPost2010Prop57
140
1.0
102
RTVSPost2010PropOp57
 70
     1
  0
XRECORD
  5
340
102
{ACAD_REACTORS
330
33F
102
}
330
33F
100
AcDbXrecord
280
     1
102
RTVSPost2010Prop28
280
     0
102
RTVSPost2010PropOp28
 70
     1
102
RTVSPost2010Prop29
280
     1
102
RTVSPost2010PropOp29
 70
     1
102
RTVSPost2010Prop30
280
     1
102
RTVSPost2010PropOp30
 70
     1
102
RTVSPost2010Prop31
280
     0
102
RTVSPost2010PropOp31
 70
     1
102
RTVSPost2010Prop32
280
     0
102
RTVSPost2010PropOp32
 70
     1
102
RTVSPost2010Prop33
280
     0
102
RTVSPost2010PropOp33
 70
     1
102
RTVSPost2010Prop34
280
     0
102
RTVSPost2010PropOp34
 70
     1
102
RTVSPost2010Prop35
280
     0
102
RTVSPost2010PropOp35
 70
     1
102
RTVSPost2010Prop36
280
     0
102
RTVSPost2010PropOp36
 70
     1
102
RTVSPost2010Prop37
 90
       50
102
RTVSPost2010PropOp37
 70
     1
102
RTVSPost2010Prop38
140
0.0
102
RTVSPost2010PropOp38
 70
     1
102
RTVSPost2010Prop39
140
1.0
102
RTVSPost2010PropOp39
 70
     1
102
RTVSPost2010Prop40
 90
        0
102
RTVSPost2010PropOp40
 70
     1
102
RTVSPost2010Prop41ColorIndex
 90
       18
102
RTVSPost2010Prop41ColorRGB
 90
        0
102
RTVSPost2010PropOp41
 70
     1
102
RTVSPost2010Prop42
 90
       50
102
RTVSPost2010PropOp42
 70
     1
102
RTVSPost2010Prop43
 90
        3
102
RTVSPost2010PropOp43
 70
     1
102
RTVSPost2010Prop44ColorIndex
 90
        5
102
RTVSPost2010Prop44ColorRGB
 90
      255
102
RTVSPost2010PropOp44
 70
     1
102
RTVSPost2010Prop45
280
     0
102
RTVSPost2010PropOp45
 70
     1
102
RTVSPost2010Prop46
 90
       50
102
RTVSPost2010PropOp46
 70
     1
102
RTVSPost2010Prop47
 90
       50
102
RTVSPost2010PropOp47
 70
     1
102
RTVSPost2010Prop48
 90
       50
102
RTVSPost2010PropOp48
 70
     1
102
RTVSPost2010Prop49
280
     0
102
RTVSPost2010PropOp49
 70
     1
102
RTVSPost2010Prop50
 90
       50
102
RTVSPost2010PropOp50
 70
     1
102
RTVSPost2010Prop51ColorIndex
 90
      256
102
RTVSPost2010Prop51ColorRGB
 90
-16777216
102
RTVSPost2010PropOp51
 70
     0
102
RTVSPost2010Prop52
140
1.0
102
RTVSPost2010PropOp52
 70
     0
102
RTVSPost2010Prop53
 90
        2
102
RTVSPost2010PropOp53
 70
     1
102
RTVSPost2010Prop54
  1
strokes_ogs.tif
102
RTVSPost2010PropOp54
 70
     1
102
RTVSPost2010Prop55
280
     0
102
RTVSPost2010PropOp55
 70
     1
102
RTVSPost2010Prop56
140
1.0
102
RTVSPost2010PropOp56
 70
     1
102
RTVSPost2010Prop57
140
1.0
102
RTVSPost2010PropOp57
 70
     1
  0
XRECORD
  5
35C
102
{ACAD_REACTORS
330
35B
102
}
330
35B
100
AcDbXrecord
280
     1
102
RTVSPost2010Prop28
280
     0
102
RTVSPost2010PropOp28
 70
     0
102
RTVSPost2010Prop29
280
     1
102
RTVSPost2010PropOp29
 70
     0
102
RTVSPost2010Prop30
280
     1
102
RTVSPost2010PropOp30
 70
     0
102
RTVSPost2010Prop31
280
     0
102
RTVSPost2010PropOp31
 70
     0
102
RTVSPost2010Prop32
280
     0
102
RTVSPost2010PropOp32
 70
     0
102
RTVSPost2010Prop33
280
     0
102
RTVSPost2010PropOp33
 70
     0
102
RTVSPost2010Prop34
280
     0
102
RTVSPost2010PropOp34
 70
     0
102
RTVSPost2010Prop35
280
     0
102
RTVSPost2010PropOp35
 70
     0
102
RTVSPost2010Prop36
280
     0
102
RTVSPost2010PropOp36
 70
     0
102
RTVSPost2010Prop37
 90
       50
102
RTVSPost2010PropOp37
 70
     0
102
RTVSPost2010Prop38
140
0.0
102
RTVSPost2010PropOp38
 70
     0
102
RTVSPost2010Prop39
140
1.0
102
RTVSPost2010PropOp39
 70
     0
102
RTVSPost2010Prop40
 90
        0
102
RTVSPost2010PropOp40
 70
     0
102
RTVSPost2010Prop41ColorIndex
 90
       18
102
RTVSPost2010Prop41ColorRGB
 90
        0
102
RTVSPost2010PropOp41
 70
     0
102
RTVSPost2010Prop42
 90
       50
102
RTVSPost2010PropOp42
 70
     0
102
RTVSPost2010Prop43
 90
        3
102
RTVSPost2010PropOp43
 70
     0
102
RTVSPost2010Prop44ColorIndex
 90
        5
102
RTVSPost2010Prop44ColorRGB
 90
      255
102
RTVSPost2010PropOp44
 70
     0
102
RTVSPost2010Prop45
280
     0
102
RTVSPost2010PropOp45
 70
     0
102
RTVSPost2010Prop46
 90
       50
102
RTVSPost2010PropOp46
 70
     0
102
RTVSPost2010Prop47
 90
       50
102
RTVSPost2010PropOp47
 70
     0
102
RTVSPost2010Prop48
 90
       50
102
RTVSPost2010PropOp48
 70
     0
102
RTVSPost2010Prop49
280
     0
102
RTVSPost2010PropOp49
 70
     0
102
RTVSPost2010Prop50
 90
       50
102
RTVSPost2010PropOp50
 70
     0
102
RTVSPost2010Prop51ColorIndex
 90
      256
102
RTVSPost2010Prop51ColorRGB
 90
-16777216
102
RTVSPost2010PropOp51
 70
     0
102
RTVSPost2010Prop52
140
1.0
102
RTVSPost2010PropOp52
 70
     0
102
RTVSPost2010Prop53
 90
        2
102
RTVSPost2010PropOp53
 70
     0
102
RTVSPost2010Prop54
  1
strokes_ogs.tif
102
RTVSPost2010PropOp54
 70
     0
102
RTVSPost2010Prop55
280
     0
102
RTVSPost2010PropOp55
 70
     0
102
RTVSPost2010Prop56
140
1.0
102
RTVSPost2010PropOp56
 70
     0
102
RTVSPost2010Prop57
140
1.0
102
RTVSPost2010PropOp57
 70
     0
  0
XRECORD
  5
34C
102
{ACAD_REACTORS
330
34B
102
}
330
34B
100
AcDbXrecord
280
     1
102
RTVSPost2010Prop28
280
     0
102
RTVSPost2010PropOp28
 70
     1
102
RTVSPost2010Prop29
280
     1
102
RTVSPost2010PropOp29
 70
     1
102
RTVSPost2010Prop30
280
     1
102
RTVSPost2010PropOp30
 70
     1
102
RTVSPost2010Prop31
280
     0
102
RTVSPost2010PropOp31
 70
     1
102
RTVSPost2010Prop32
280
     0
102
RTVSPost2010PropOp32
 70
     1
102
RTVSPost2010Prop33
280
     0
102
RTVSPost2010PropOp33
 70
     1
102
RTVSPost2010Prop34
280
     0
102
RTVSPost2010PropOp34
 70
     1
102
RTVSPost2010Prop35
280
     0
102
RTVSPost2010PropOp35
 70
     1
102
RTVSPost2010Prop36
280
     0
102
RTVSPost2010PropOp36
 70
     1
102
RTVSPost2010Prop37
 90
       50
102
RTVSPost2010PropOp37
 70
     1
102
RTVSPost2010Prop38
140
0.0
102
RTVSPost2010PropOp38
 70
     1
102
RTVSPost2010Prop39
140
1.0
102
RTVSPost2010PropOp39
 70
     1
102
RTVSPost2010Prop40
 90
        0
102
RTVSPost2010PropOp40
 70
     1
102
RTVSPost2010Prop41ColorIndex
 90
       18
102
RTVSPost2010Prop41ColorRGB
 90
        0
102
RTVSPost2010PropOp41
 70
     1
102
RTVSPost2010Prop42
 90
       50
102
RTVSPost2010PropOp42
 70
     1
102
RTVSPost2010Prop43
 90
        3
102
RTVSPost2010PropOp43
 70
     1
102
RTVSPost2010Prop44ColorIndex
 90
        5
102
RTVSPost2010Prop44ColorRGB
 90
      255
102
RTVSPost2010PropOp44
 70
     1
102
RTVSPost2010Prop45
280
     0
102
RTVSPost2010PropOp45
 70
     1
102
RTVSPost2010Prop46
 90
       50
102
RTVSPost2010PropOp46
 70
     1
102
RTVSPost2010Prop47
 90
       50
102
RTVSPost2010PropOp47
 70
     1
102
RTVSPost2010Prop48
 90
       50
102
RTVSPost2010PropOp48
 70
     1
102
RTVSPost2010Prop49
280
     0
102
RTVSPost2010PropOp49
 70
     1
102
RTVSPost2010Prop50
 90
       50
102
RTVSPost2010PropOp50
 70
     1
102
RTVSPost2010Prop51ColorIndex
 90
      256
102
RTVSPost2010Prop51ColorRGB
 90
-16777216
102
RTVSPost2010PropOp51
 70
     0
102
RTVSPost2010Prop52
140
1.0
102
RTVSPost2010PropOp52
 70
     0
102
RTVSPost2010Prop53
 90
        2
102
RTVSPost2010PropOp53
 70
     1
102
RTVSPost2010Prop54
  1
strokes_ogs.tif
102
RTVSPost2010PropOp54
 70
     1
102
RTVSPost2010Prop55
280
     0
102
RTVSPost2010PropOp55
 70
     1
102
RTVSPost2010Prop56
140
1.0
102
RTVSPost2010PropOp56
 70
     1
102
RTVSPost2010Prop57
140
1.0
102
RTVSPost2010PropOp57
 70
     1
  0
XRECORD
  5
35E
102
{ACAD_REACTORS
330
35D
102
}
330
35D
100
AcDbXrecord
280
     1
102
RTVSPost2010Prop28
280
     0
102
RTVSPost2010PropOp28
 70
     0
102
RTVSPost2010Prop29
280
     1
102
RTVSPost2010PropOp29
 70
     0
102
RTVSPost2010Prop30
280
     1
102
RTVSPost2010PropOp30
 70
     0
102
RTVSPost2010Prop31
280
     0
102
RTVSPost2010PropOp31
 70
     0
102
RTVSPost2010Prop32
280
     0
102
RTVSPost2010PropOp32
 70
     0
102
RTVSPost2010Prop33
280
     0
102
RTVSPost2010PropOp33
 70
     0
102
RTVSPost2010Prop34
280
     0
102
RTVSPost2010PropOp34
 70
     0
102
RTVSPost2010Prop35
280
     0
102
RTVSPost2010PropOp35
 70
     0
102
RTVSPost2010Prop36
280
     0
102
RTVSPost2010PropOp36
 70
     0
102
RTVSPost2010Prop37
 90
       50
102
RTVSPost2010PropOp37
 70
     0
102
RTVSPost2010Prop38
140
0.0
102
RTVSPost2010PropOp38
 70
     0
102
RTVSPost2010Prop39
140
1.0
102
RTVSPost2010PropOp39
 70
     0
102
RTVSPost2010Prop40
 90
        0
102
RTVSPost2010PropOp40
 70
     0
102
RTVSPost2010Prop41ColorIndex
 90
       18
102
RTVSPost2010Prop41ColorRGB
 90
        0
102
RTVSPost2010PropOp41
 70
     0
102
RTVSPost2010Prop42
 90
       50
102
RTVSPost2010PropOp42
 70
     0
102
RTVSPost2010Prop43
 90
        3
102
RTVSPost2010PropOp43
 70
     0
102
RTVSPost2010Prop44ColorIndex
 90
        5
102
RTVSPost2010Prop44ColorRGB
 90
      255
102
RTVSPost2010PropOp44
 70
     0
102
RTVSPost2010Prop45
280
     0
102
RTVSPost2010PropOp45
 70
     0
102
RTVSPost2010Prop46
 90
       50
102
RTVSPost2010PropOp46
 70
     0
102
RTVSPost2010Prop47
 90
       50
102
RTVSPost2010PropOp47
 70
     0
102
RTVSPost2010Prop48
 90
       50
102
RTVSPost2010PropOp48
 70
     0
102
RTVSPost2010Prop49
280
     0
102
RTVSPost2010PropOp49
 70
     0
102
RTVSPost2010Prop50
 90
       50
102
RTVSPost2010PropOp50
 70
     0
102
RTVSPost2010Prop51ColorIndex
 90
      256
102
RTVSPost2010Prop51ColorRGB
 90
-16777216
102
RTVSPost2010PropOp51
 70
     0
102
RTVSPost2010Prop52
140
1.0
102
RTVSPost2010PropOp52
 70
     0
102
RTVSPost2010Prop53
 90
        2
102
RTVSPost2010PropOp53
 70
     0
102
RTVSPost2010Prop54
  1
strokes_ogs.tif
102
RTVSPost2010PropOp54
 70
     0
102
RTVSPost2010Prop55
280
     0
102
RTVSPost2010PropOp55
 70
     0
102
RTVSPost2010Prop56
140
1.0
102
RTVSPost2010PropOp56
 70
     0
102
RTVSPost2010Prop57
140
1.0
102
RTVSPost2010PropOp57
 70
     0
  0
XRECORD
  5
344
102
{ACAD_REACTORS
330
343
102
}
330
343
100
AcDbXrecord
280
     1
102
RTVSPost2010Prop28
280
     0
102
RTVSPost2010PropOp28
 70
     1
102
RTVSPost2010Prop29
280
     1
102
RTVSPost2010PropOp29
 70
     1
102
RTVSPost2010Prop30
280
     1
102
RTVSPost2010PropOp30
 70
     1
102
RTVSPost2010Prop31
280
     0
102
RTVSPost2010PropOp31
 70
     1
102
RTVSPost2010Prop32
280
     0
102
RTVSPost2010PropOp32
 70
     1
102
RTVSPost2010Prop33
280
     0
102
RTVSPost2010PropOp33
 70
     1
102
RTVSPost2010Prop34
280
     0
102
RTVSPost2010PropOp34
 70
     1
102
RTVSPost2010Prop35
280
     0
102
RTVSPost2010PropOp35
 70
     1
102
RTVSPost2010Prop36
280
     0
102
RTVSPost2010PropOp36
 70
     1
102
RTVSPost2010Prop37
 90
       50
102
RTVSPost2010PropOp37
 70
     1
102
RTVSPost2010Prop38
140
0.0
102
RTVSPost2010PropOp38
 70
     1
102
RTVSPost2010Prop39
140
1.0
102
RTVSPost2010PropOp39
 70
     1
102
RTVSPost2010Prop40
 90
        0
102
RTVSPost2010PropOp40
 70
     1
102
RTVSPost2010Prop41ColorIndex
 90
       18
102
RTVSPost2010Prop41ColorRGB
 90
        0
102
RTVSPost2010PropOp41
 70
     1
102
RTVSPost2010Prop42
 90
       50
102
RTVSPost2010PropOp42
 70
     1
102
RTVSPost2010Prop43
 90
        3
102
RTVSPost2010PropOp43
 70
     1
102
RTVSPost2010Prop44ColorIndex
 90
        5
102
RTVSPost2010Prop44ColorRGB
 90
      255
102
RTVSPost2010PropOp44
 70
     1
102
RTVSPost2010Prop45
280
     0
102
RTVSPost2010PropOp45
 70
     1
102
RTVSPost2010Prop46
 90
       50
102
RTVSPost2010PropOp46
 70
     1
102
RTVSPost2010Prop47
 90
       50
102
RTVSPost2010PropOp47
 70
     1
102
RTVSPost2010Prop48
 90
       50
102
RTVSPost2010PropOp48
 70
     1
102
RTVSPost2010Prop49
280
     0
102
RTVSPost2010PropOp49
 70
     1
102
RTVSPost2010Prop50
 90
       50
102
RTVSPost2010PropOp50
 70
     1
102
RTVSPost2010Prop51ColorIndex
 90
      256
102
RTVSPost2010Prop51ColorRGB
 90
-16777216
102
RTVSPost2010PropOp51
 70
     0
102
RTVSPost2010Prop52
140
1.0
102
RTVSPost2010PropOp52
 70
     0
102
RTVSPost2010Prop53
 90
        2
102
RTVSPost2010PropOp53
 70
     1
102
RTVSPost2010Prop54
  1
strokes_ogs.tif
102
RTVSPost2010PropOp54
 70
     1
102
RTVSPost2010Prop55
280
     0
102
RTVSPost2010PropOp55
 70
     1
102
RTVSPost2010Prop56
140
1.0
102
RTVSPost2010PropOp56
 70
     1
102
RTVSPost2010Prop57
140
1.0
102
RTVSPost2010PropOp57
 70
     1
  0
XRECORD
  5
35A
102
{ACAD_REACTORS
330
359
102
}
330
359
100
AcDbXrecord
280
     1
102
RTVSPost2010Prop28
280
     0
102
RTVSPost2010PropOp28
 70
     1
102
RTVSPost2010Prop29
280
     1
102
RTVSPost2010PropOp29
 70
     1
102
RTVSPost2010Prop30
280
     1
102
RTVSPost2010PropOp30
 70
     1
102
RTVSPost2010Prop31
280
     0
102
RTVSPost2010PropOp31
 70
     1
102
RTVSPost2010Prop32
280
     0
102
RTVSPost2010PropOp32
 70
     1
102
RTVSPost2010Prop33
280
     0
102
RTVSPost2010PropOp33
 70
     1
102
RTVSPost2010Prop34
280
     0
102
RTVSPost2010PropOp34
 70
     1
102
RTVSPost2010Prop35
280
     0
102
RTVSPost2010PropOp35
 70
     1
102
RTVSPost2010Prop36
280
     0
102
RTVSPost2010PropOp36
 70
     1
102
RTVSPost2010Prop37
 90
       50
102
RTVSPost2010PropOp37
 70
     1
102
RTVSPost2010Prop38
140
0.0
102
RTVSPost2010PropOp38
 70
     1
102
RTVSPost2010Prop39
140
1.0
102
RTVSPost2010PropOp39
 70
     1
102
RTVSPost2010Prop40
 90
        0
102
RTVSPost2010PropOp40
 70
     1
102
RTVSPost2010Prop41ColorIndex
 90
       18
102
RTVSPost2010Prop41ColorRGB
 90
        0
102
RTVSPost2010PropOp41
 70
     1
102
RTVSPost2010Prop42
 90
       50
102
RTVSPost2010PropOp42
 70
     1
102
RTVSPost2010Prop43
 90
        3
102
RTVSPost2010PropOp43
 70
     1
102
RTVSPost2010Prop44ColorIndex
 90
        5
102
RTVSPost2010Prop44ColorRGB
 90
      255
102
RTVSPost2010PropOp44
 70
     1
102
RTVSPost2010Prop45
280
     0
102
RTVSPost2010PropOp45
 70
     1
102
RTVSPost2010Prop46
 90
       50
102
RTVSPost2010PropOp46
 70
     1
102
RTVSPost2010Prop47
 90
       50
102
RTVSPost2010PropOp47
 70
     1
102
RTVSPost2010Prop48
 90
       50
102
RTVSPost2010PropOp48
 70
     1
102
RTVSPost2010Prop49
280
     0
102
RTVSPost2010PropOp49
 70
     1
102
RTVSPost2010Prop50
 90
       50
102
RTVSPost2010PropOp50
 70
     1
102
RTVSPost2010Prop51ColorIndex
 90
      256
102
RTVSPost2010Prop51ColorRGB
 90
-16777216
102
RTVSPost2010PropOp51
 70
     0
102
RTVSPost2010Prop52
140
1.0
102
RTVSPost2010PropOp52
 70
     0
102
RTVSPost2010Prop53
 90
        2
102
RTVSPost2010PropOp53
 70
     1
102
RTVSPost2010Prop54
  1
strokes_ogs.tif
102
RTVSPost2010PropOp54
 70
     1
102
RTVSPost2010Prop55
280
     0
102
RTVSPost2010PropOp55
 70
     1
102
RTVSPost2010Prop56
140
1.0
102
RTVSPost2010PropOp56
 70
     1
102
RTVSPost2010Prop57
140
1.0
102
RTVSPost2010PropOp57
 70
     1
  0
XRECORD
  5
358
102
{ACAD_REACTORS
330
357
102
}
330
357
100
AcDbXrecord
280
     1
102
RTVSPost2010Prop28
280
     0
102
RTVSPost2010PropOp28
 70
     1
102
RTVSPost2010Prop29
280
     1
102
RTVSPost2010PropOp29
 70
     1
102
RTVSPost2010Prop30
280
     1
102
RTVSPost2010PropOp30
 70
     1
102
RTVSPost2010Prop31
280
     0
102
RTVSPost2010PropOp31
 70
     1
102
RTVSPost2010Prop32
280
     0
102
RTVSPost2010PropOp32
 70
     1
102
RTVSPost2010Prop33
280
     0
102
RTVSPost2010PropOp33
 70
     1
102
RTVSPost2010Prop34
280
     0
102
RTVSPost2010PropOp34
 70
     1
102
RTVSPost2010Prop35
280
     0
102
RTVSPost2010PropOp35
 70
     1
102
RTVSPost2010Prop36
280
     0
102
RTVSPost2010PropOp36
 70
     1
102
RTVSPost2010Prop37
 90
       50
102
RTVSPost2010PropOp37
 70
     1
102
RTVSPost2010Prop38
140
0.0
102
RTVSPost2010PropOp38
 70
     1
102
RTVSPost2010Prop39
140
1.0
102
RTVSPost2010PropOp39
 70
     1
102
RTVSPost2010Prop40
 90
        0
102
RTVSPost2010PropOp40
 70
     1
102
RTVSPost2010Prop41ColorIndex
 90
       18
102
RTVSPost2010Prop41ColorRGB
 90
        0
102
RTVSPost2010PropOp41
 70
     1
102
RTVSPost2010Prop42
 90
       50
102
RTVSPost2010PropOp42
 70
     1
102
RTVSPost2010Prop43
 90
        3
102
RTVSPost2010PropOp43
 70
     1
102
RTVSPost2010Prop44ColorIndex
 90
        5
102
RTVSPost2010Prop44ColorRGB
 90
      255
102
RTVSPost2010PropOp44
 70
     1
102
RTVSPost2010Prop45
280
     0
102
RTVSPost2010PropOp45
 70
     1
102
RTVSPost2010Prop46
 90
       50
102
RTVSPost2010PropOp46
 70
     1
102
RTVSPost2010Prop47
 90
       50
102
RTVSPost2010PropOp47
 70
     1
102
RTVSPost2010Prop48
 90
       50
102
RTVSPost2010PropOp48
 70
     1
102
RTVSPost2010Prop49
280
     0
102
RTVSPost2010PropOp49
 70
     1
102
RTVSPost2010Prop50
 90
       50
102
RTVSPost2010PropOp50
 70
     1
102
RTVSPost2010Prop51ColorIndex
 90
      256
102
RTVSPost2010Prop51ColorRGB
 90
-16777216
102
RTVSPost2010PropOp51
 70
     0
102
RTVSPost2010Prop52
140
1.0
102
RTVSPost2010PropOp52
 70
     0
102
RTVSPost2010Prop53
 90
        2
102
RTVSPost2010PropOp53
 70
     1
102
RTVSPost2010Prop54
  1
strokes_ogs.tif
102
RTVSPost2010PropOp54
 70
     1
102
RTVSPost2010Prop55
280
     0
102
RTVSPost2010PropOp55
 70
     1
102
RTVSPost2010Prop56
140
1.0
102
RTVSPost2010PropOp56
 70
     1
102
RTVSPost2010Prop57
140
1.0
102
RTVSPost2010PropOp57
 70
     1
  0
XRECORD
  5
352
102
{ACAD_REACTORS
330
351
102
}
330
351
100
AcDbXrecord
280
     1
102
RTVSPost2010Prop28
280
     0
102
RTVSPost2010PropOp28
 70
     1
102
RTVSPost2010Prop29
280
     1
102
RTVSPost2010PropOp29
 70
     1
102
RTVSPost2010Prop30
280
     1
102
RTVSPost2010PropOp30
 70
     1
102
RTVSPost2010Prop31
280
     0
102
RTVSPost2010PropOp31
 70
     1
102
RTVSPost2010Prop32
280
     0
102
RTVSPost2010PropOp32
 70
     1
102
RTVSPost2010Prop33
280
     0
102
RTVSPost2010PropOp33
 70
     1
102
RTVSPost2010Prop34
280
     0
102
RTVSPost2010PropOp34
 70
     1
102
RTVSPost2010Prop35
280
     0
102
RTVSPost2010PropOp35
 70
     1
102
RTVSPost2010Prop36
280
     0
102
RTVSPost2010PropOp36
 70
     1
102
RTVSPost2010Prop37
 90
       50
102
RTVSPost2010PropOp37
 70
     1
102
RTVSPost2010Prop38
140
0.0
102
RTVSPost2010PropOp38
 70
     1
102
RTVSPost2010Prop39
140
1.0
102
RTVSPost2010PropOp39
 70
     1
102
RTVSPost2010Prop40
 90
        0
102
RTVSPost2010PropOp40
 70
     1
102
RTVSPost2010Prop41ColorIndex
 90
       18
102
RTVSPost2010Prop41ColorRGB
 90
        0
102
RTVSPost2010PropOp41
 70
     1
102
RTVSPost2010Prop42
 90
       50
102
RTVSPost2010PropOp42
 70
     1
102
RTVSPost2010Prop43
 90
        3
102
RTVSPost2010PropOp43
 70
     1
102
RTVSPost2010Prop44ColorIndex
 90
        5
102
RTVSPost2010Prop44ColorRGB
 90
      255
102
RTVSPost2010PropOp44
 70
     1
102
RTVSPost2010Prop45
280
     0
102
RTVSPost2010PropOp45
 70
     1
102
RTVSPost2010Prop46
 90
       50
102
RTVSPost2010PropOp46
 70
     1
102
RTVSPost2010Prop47
 90
       50
102
RTVSPost2010PropOp47
 70
     1
102
RTVSPost2010Prop48
 90
       50
102
RTVSPost2010PropOp48
 70
     1
102
RTVSPost2010Prop49
280
     0
102
RTVSPost2010PropOp49
 70
     1
102
RTVSPost2010Prop50
 90
       50
102
RTVSPost2010PropOp50
 70
     1
102
RTVSPost2010Prop51ColorIndex
 90
      256
102
RTVSPost2010Prop51ColorRGB
 90
-16777216
102
RTVSPost2010PropOp51
 70
     0
102
RTVSPost2010Prop52
140
1.0
102
RTVSPost2010PropOp52
 70
     0
102
RTVSPost2010Prop53
 90
        2
102
RTVSPost2010PropOp53
 70
     1
102
RTVSPost2010Prop54
  1
strokes_ogs.tif
102
RTVSPost2010PropOp54
 70
     1
102
RTVSPost2010Prop55
280
     0
102
RTVSPost2010PropOp55
 70
     1
102
RTVSPost2010Prop56
140
1.0
102
RTVSPost2010PropOp56
 70
     1
102
RTVSPost2010Prop57
140
1.0
102
RTVSPost2010PropOp57
 70
     1
  0
XRECORD
  5
354
102
{ACAD_REACTORS
330
353
102
}
330
353
100
AcDbXrecord
280
     1
102
RTVSPost2010Prop28
280
     0
102
RTVSPost2010PropOp28
 70
     1
102
RTVSPost2010Prop29
280
     1
102
RTVSPost2010PropOp29
 70
     1
102
RTVSPost2010Prop30
280
     1
102
RTVSPost2010PropOp30
 70
     1
102
RTVSPost2010Prop31
280
     0
102
RTVSPost2010PropOp31
 70
     1
102
RTVSPost2010Prop32
280
     0
102
RTVSPost2010PropOp32
 70
     1
102
RTVSPost2010Prop33
280
     0
102
RTVSPost2010PropOp33
 70
     1
102
RTVSPost2010Prop34
280
     0
102
RTVSPost2010PropOp34
 70
     1
102
RTVSPost2010Prop35
280
     0
102
RTVSPost2010PropOp35
 70
     1
102
RTVSPost2010Prop36
280
     0
102
RTVSPost2010PropOp36
 70
     1
102
RTVSPost2010Prop37
 90
       50
102
RTVSPost2010PropOp37
 70
     1
102
RTVSPost2010Prop38
140
0.0
102
RTVSPost2010PropOp38
 70
     1
102
RTVSPost2010Prop39
140
1.0
102
RTVSPost2010PropOp39
 70
     1
102
RTVSPost2010Prop40
 90
        0
102
RTVSPost2010PropOp40
 70
     1
102
RTVSPost2010Prop41ColorIndex
 90
       18
102
RTVSPost2010Prop41ColorRGB
 90
        0
102
RTVSPost2010PropOp41
 70
     1
102
RTVSPost2010Prop42
 90
       50
102
RTVSPost2010PropOp42
 70
     1
102
RTVSPost2010Prop43
 90
        3
102
RTVSPost2010PropOp43
 70
     1
102
RTVSPost2010Prop44ColorIndex
 90
        5
102
RTVSPost2010Prop44ColorRGB
 90
      255
102
RTVSPost2010PropOp44
 70
     1
102
RTVSPost2010Prop45
280
     0
102
RTVSPost2010PropOp45
 70
     1
102
RTVSPost2010Prop46
 90
       50
102
RTVSPost2010PropOp46
 70
     1
102
RTVSPost2010Prop47
 90
       50
102
RTVSPost2010PropOp47
 70
     1
102
RTVSPost2010Prop48
 90
       50
102
RTVSPost2010PropOp48
 70
     1
102
RTVSPost2010Prop49
280
     0
102
RTVSPost2010PropOp49
 70
     1
102
RTVSPost2010Prop50
 90
       50
102
RTVSPost2010PropOp50
 70
     1
102
RTVSPost2010Prop51ColorIndex
 90
      256
102
RTVSPost2010Prop51ColorRGB
 90
-16777216
102
RTVSPost2010PropOp51
 70
     0
102
RTVSPost2010Prop52
140
1.0
102
RTVSPost2010PropOp52
 70
     0
102
RTVSPost2010Prop53
 90
        2
102
RTVSPost2010PropOp53
 70
     1
102
RTVSPost2010Prop54
  1
strokes_ogs.tif
102
RTVSPost2010PropOp54
 70
     1
102
RTVSPost2010Prop55
280
     0
102
RTVSPost2010PropOp55
 70
     1
102
RTVSPost2010Prop56
140
1.0
102
RTVSPost2010PropOp56
 70
     1
102
RTVSPost2010Prop57
140
1.0
102
RTVSPost2010PropOp57
 70
     1
  0
XRECORD
  5
34A
102
{ACAD_REACTORS
330
349
102
}
330
349
100
AcDbXrecord
280
     1
102
RTVSPost2010Prop28
280
     0
102
RTVSPost2010PropOp28
 70
     1
102
RTVSPost2010Prop29
280
     1
102
RTVSPost2010PropOp29
 70
     1
102
RTVSPost2010Prop30
280
     1
102
RTVSPost2010PropOp30
 70
     1
102
RTVSPost2010Prop31
280
     0
102
RTVSPost2010PropOp31
 70
     1
102
RTVSPost2010Prop32
280
     0
102
RTVSPost2010PropOp32
 70
     1
102
RTVSPost2010Prop33
280
     0
102
RTVSPost2010PropOp33
 70
     1
102
RTVSPost2010Prop34
280
     0
102
RTVSPost2010PropOp34
 70
     1
102
RTVSPost2010Prop35
280
     0
102
RTVSPost2010PropOp35
 70
     1
102
RTVSPost2010Prop36
280
     0
102
RTVSPost2010PropOp36
 70
     1
102
RTVSPost2010Prop37
 90
       50
102
RTVSPost2010PropOp37
 70
     1
102
RTVSPost2010Prop38
140
0.0
102
RTVSPost2010PropOp38
 70
     1
102
RTVSPost2010Prop39
140
1.0
102
RTVSPost2010PropOp39
 70
     1
102
RTVSPost2010Prop40
 90
        0
102
RTVSPost2010PropOp40
 70
     1
102
RTVSPost2010Prop41ColorIndex
 90
       18
102
RTVSPost2010Prop41ColorRGB
 90
        0
102
RTVSPost2010PropOp41
 70
     1
102
RTVSPost2010Prop42
 90
       50
102
RTVSPost2010PropOp42
 70
     1
102
RTVSPost2010Prop43
 90
        3
102
RTVSPost2010PropOp43
 70
     1
102
RTVSPost2010Prop44ColorIndex
 90
        5
102
RTVSPost2010Prop44ColorRGB
 90
      255
102
RTVSPost2010PropOp44
 70
     1
102
RTVSPost2010Prop45
280
     0
102
RTVSPost2010PropOp45
 70
     1
102
RTVSPost2010Prop46
 90
       50
102
RTVSPost2010PropOp46
 70
     1
102
RTVSPost2010Prop47
 90
       50
102
RTVSPost2010PropOp47
 70
     1
102
RTVSPost2010Prop48
 90
       50
102
RTVSPost2010PropOp48
 70
     1
102
RTVSPost2010Prop49
280
     0
102
RTVSPost2010PropOp49
 70
     1
102
RTVSPost2010Prop50
 90
       50
102
RTVSPost2010PropOp50
 70
     1
102
RTVSPost2010Prop51ColorIndex
 90
      256
102
RTVSPost2010Prop51ColorRGB
 90
-16777216
102
RTVSPost2010PropOp51
 70
     0
102
RTVSPost2010Prop52
140
1.0
102
RTVSPost2010PropOp52
 70
     0
102
RTVSPost2010Prop53
 90
        2
102
RTVSPost2010PropOp53
 70
     1
102
RTVSPost2010Prop54
  1
strokes_ogs.tif
102
RTVSPost2010PropOp54
 70
     1
102
RTVSPost2010Prop55
280
     0
102
RTVSPost2010PropOp55
 70
     1
102
RTVSPost2010Prop56
140
1.0
102
RTVSPost2010PropOp56
 70
     1
102
RTVSPost2010Prop57
140
1.0
102
RTVSPost2010PropOp57
 70
     1
  0
XRECORD
  5
33E
102
{ACAD_REACTORS
330
33D
102
}
330
33D
100
AcDbXrecord
280
     1
102
RTVSPost2010Prop28
280
     0
102
RTVSPost2010PropOp28
 70
     1
102
RTVSPost2010Prop29
280
     1
102
RTVSPost2010PropOp29
 70
     1
102
RTVSPost2010Prop30
280
     1
102
RTVSPost2010PropOp30
 70
     1
102
RTVSPost2010Prop31
280
     0
102
RTVSPost2010PropOp31
 70
     1
102
RTVSPost2010Prop32
280
     0
102
RTVSPost2010PropOp32
 70
     1
102
RTVSPost2010Prop33
280
     0
102
RTVSPost2010PropOp33
 70
     1
102
RTVSPost2010Prop34
280
     0
102
RTVSPost2010PropOp34
 70
     1
102
RTVSPost2010Prop35
280
     0
102
RTVSPost2010PropOp35
 70
     1
102
RTVSPost2010Prop36
280
     0
102
RTVSPost2010PropOp36
 70
     1
102
RTVSPost2010Prop37
 90
       50
102
RTVSPost2010PropOp37
 70
     1
102
RTVSPost2010Prop38
140
0.0
102
RTVSPost2010PropOp38
 70
     1
102
RTVSPost2010Prop39
140
1.0
102
RTVSPost2010PropOp39
 70
     1
102
RTVSPost2010Prop40
 90
        0
102
RTVSPost2010PropOp40
 70
     1
102
RTVSPost2010Prop41ColorIndex
 90
       18
102
RTVSPost2010Prop41ColorRGB
 90
        0
102
RTVSPost2010PropOp41
 70
     1
102
RTVSPost2010Prop42
 90
       50
102
RTVSPost2010PropOp42
 70
     1
102
RTVSPost2010Prop43
 90
        3
102
RTVSPost2010PropOp43
 70
     1
102
RTVSPost2010Prop44ColorIndex
 90
        5
102
RTVSPost2010Prop44ColorRGB
 90
      255
102
RTVSPost2010PropOp44
 70
     1
102
RTVSPost2010Prop45
280
     0
102
RTVSPost2010PropOp45
 70
     1
102
RTVSPost2010Prop46
 90
       50
102
RTVSPost2010PropOp46
 70
     1
102
RTVSPost2010Prop47
 90
       50
102
RTVSPost2010PropOp47
 70
     1
102
RTVSPost2010Prop48
 90
       50
102
RTVSPost2010PropOp48
 70
     1
102
RTVSPost2010Prop49
280
     0
102
RTVSPost2010PropOp49
 70
     1
102
RTVSPost2010Prop50
 90
       50
102
RTVSPost2010PropOp50
 70
     1
102
RTVSPost2010Prop51ColorIndex
 90
      256
102
RTVSPost2010Prop51ColorRGB
 90
-16777216
102
RTVSPost2010PropOp51
 70
     0
102
RTVSPost2010Prop52
140
1.0
102
RTVSPost2010PropOp52
 70
     0
102
RTVSPost2010Prop53
 90
        2
102
RTVSPost2010PropOp53
 70
     1
102
RTVSPost2010Prop54
  1
strokes_ogs.tif
102
RTVSPost2010PropOp54
 70
     1
102
RTVSPost2010Prop55
280
     0
102
RTVSPost2010PropOp55
 70
     1
102
RTVSPost2010Prop56
140
1.0
102
RTVSPost2010PropOp56
 70
     1
102
RTVSPost2010Prop57
140
1.0
102
RTVSPost2010PropOp57
 70
     1
  0
XRECORD
  5
356
102
{ACAD_REACTORS
330
355
102
}
330
355
100
AcDbXrecord
280
     1
102
RTVSPost2010Prop28
280
     0
102
RTVSPost2010PropOp28
 70
     1
102
RTVSPost2010Prop29
280
     1
102
RTVSPost2010PropOp29
 70
     1
102
RTVSPost2010Prop30
280
     1
102
RTVSPost2010PropOp30
 70
     1
102
RTVSPost2010Prop31
280
     0
102
RTVSPost2010PropOp31
 70
     1
102
RTVSPost2010Prop32
280
     0
102
RTVSPost2010PropOp32
 70
     1
102
RTVSPost2010Prop33
280
     0
102
RTVSPost2010PropOp33
 70
     1
102
RTVSPost2010Prop34
280
     0
102
RTVSPost2010PropOp34
 70
     1
102
RTVSPost2010Prop35
280
     0
102
RTVSPost2010PropOp35
 70
     1
102
RTVSPost2010Prop36
280
     0
102
RTVSPost2010PropOp36
 70
     1
102
RTVSPost2010Prop37
 90
       50
102
RTVSPost2010PropOp37
 70
     1
102
RTVSPost2010Prop38
140
0.0
102
RTVSPost2010PropOp38
 70
     1
102
RTVSPost2010Prop39
140
1.0
102
RTVSPost2010PropOp39
 70
     1
102
RTVSPost2010Prop40
 90
        0
102
RTVSPost2010PropOp40
 70
     1
102
RTVSPost2010Prop41ColorIndex
 90
       18
102
RTVSPost2010Prop41ColorRGB
 90
        0
102
RTVSPost2010PropOp41
 70
     1
102
RTVSPost2010Prop42
 90
       50
102
RTVSPost2010PropOp42
 70
     1
102
RTVSPost2010Prop43
 90
        3
102
RTVSPost2010PropOp43
 70
     1
102
RTVSPost2010Prop44ColorIndex
 90
        5
102
RTVSPost2010Prop44ColorRGB
 90
      255
102
RTVSPost2010PropOp44
 70
     1
102
RTVSPost2010Prop45
280
     0
102
RTVSPost2010PropOp45
 70
     1
102
RTVSPost2010Prop46
 90
       50
102
RTVSPost2010PropOp46
 70
     1
102
RTVSPost2010Prop47
 90
       50
102
RTVSPost2010PropOp47
 70
     1
102
RTVSPost2010Prop48
 90
       50
102
RTVSPost2010PropOp48
 70
     1
102
RTVSPost2010Prop49
280
     0
102
RTVSPost2010PropOp49
 70
     1
102
RTVSPost2010Prop50
 90
       50
102
RTVSPost2010PropOp50
 70
     1
102
RTVSPost2010Prop51ColorIndex
 90
      256
102
RTVSPost2010Prop51ColorRGB
 90
-16777216
102
RTVSPost2010PropOp51
 70
     0
102
RTVSPost2010Prop52
140
1.0
102
RTVSPost2010PropOp52
 70
     0
102
RTVSPost2010Prop53
 90
        2
102
RTVSPost2010PropOp53
 70
     1
102
RTVSPost2010Prop54
  1
strokes_ogs.tif
102
RTVSPost2010PropOp54
 70
     1
102
RTVSPost2010Prop55
280
     0
102
RTVSPost2010PropOp55
 70
     1
102
RTVSPost2010Prop56
140
1.0
102
RTVSPost2010PropOp56
 70
     1
102
RTVSPost2010Prop57
140
1.0
102
RTVSPost2010PropOp57
 70
     1
  0
ENDSEC
  0
EOF
